Song name
# A B C D E F G H I J K L M N O P Q R S T U V W X Y Z

Def Leppard - Stand Up tab

P                  Def leppard – Stand up (Kick love into motion) solo
                                From  “Adrenalize”

By Sanjeev George and Thomas George
Contact at sanjeevgeorge123@yahoo.co.in


| /  slide up
| \  slide down
| h  hammer-on
| p  pull-off
| +  pinch harmonic
| v  vibrato

e|----------------------------------------------------|
B|--5-5-5/7—7/9—9/12--12--12-12--12-------------------|
G|----------------------------------13-11-13v---------|
D|----------------------------------------------------|
A|----------------------------------------------------|
E|----------------------------------------------------|

e|----------------------------------------------------|
B|----------------------------------------------------|
G|--13-13-13\11—11\9—9\8--8-8--9-8-9p8-6+-------------|
D|----------------------------------------------------|
A|----------------------------------------------------|
E|----------------------------------------------------|


e|----------------------------------------------------|
B|--7b9r7p5-7-5—4h5p4---------------------------------|
G|--------------------6-4-----------------------------|
D|------------------------6--4-2-4-2b4-2v-------------|
A|----------------------------------------------------|
E|----------------------------------------------------|

e|--12--12-12-12-12--11-11-11-11---------------------------------------------|
B|--12--12-12-12-12--12-12-12-12--14-14-14-14--12-12-12-12—14p12-14p12-------|
G|---------------------------------------------------------------------14v---|
D|---------------------------------------------------------------------------|
A|---------------------------------------------------------------------------|
E|---------------------------------------------------------------------------|

Please rate the tab
Tap to rate this tab
# A B C D E F G H I J K L M N O P Q R S T U V W X Y Z