Guitaretab - guitar tabs
Song name
# A B C D E F G H I J K L M N O P Q R S T U V W X Y Z

Def Leppard - Love tab


-------------------------------------------------------------------------------
			     LOVE - DEF LEPPARD
-------------------------------------------------------------------------------
Tabbed by: dennis27

Tuning: standard (i dont know for sure if its sposed to be in standard but thats what i used)

this was my first attemp at transcribing so i'd be surprised if it were 100% accurate,
it sounds ok to me. i planned on doing the whole song but i got sidetracked, and i dont
i'll get back to it anytime soon. since there doesnt seem to be anything on this song i 
i might as well post this.

this is acoustic for the most part.
opens with D on overdrive electric gtr.
first 8 notes start along with the electric gtr.

e|--------------------------|
B|--------5------4----------|
G|---------------------6----|
D|-----6-----6------6-----6-|
A|--4-----------------------|
E|--------------------------|
[ Tab from: http://www.guitaretab.com/d/def-leppard/192357.html ]
e|-----------------------------------------------------------|
B|--------5------4-------------------5------4-----------5----|
G|---------------------6--------------------------6-----3----|
D|-----6-----6------6-----6-------6-----6------6-----6--6----|
A|--4--------------------------4------------------------4----|
E|-----------------------------------------------------------|

e|----------4-----------4-----------4-----------2-----------0-|
B|-------5-----------4-----------4-----------2-----------0----|
G|----6-----------5-----------4-----------3-----------1-------|
D|------------------------------------------------------------|
A|-4-----------4-----------4-----------4-----------4----------|
E|------------------------------------------------------------|

e|---------------3-----------------------2-------------------|
B|---------------------2-----------------------2-----5-------|
G|---------6--3-----3-----3--------6--2-----2-----2--2-------|
D|-3/5--8--------------------4--7--------------------4-------|
A|-----------------------------------------------------------|
E|-----------------------------------------------------------|
    s
Related for Love tab
Advertisement will be closed in 10 seconds