Song name
# A B C D E F G H I J K L M N O P Q R S T U V W X Y Z

Def Leppard - Die Hard The Hunter tab

e---------------------------------------------------|
b---------------2------------------------2----------|
g--------0---------0---0------------0------0---0----|
D------------4-------4-----------------4-----4------|
A-----7--------------------------7------------------|
E--0--------------------------0---------------------|


e---------------------------------------------------|
b--------0-----------------------0------------------|
g-----0----0----0-----------0------0-----0----------|
D---4--4-----4------------4---4-------4-------------|
A-5---------------------5---------------------------|
E---------------------------------------------------|


e---------------------------------------------------------|
b---------------------------------------------------------|
g---------------------------------------------------------|
D---------------------------------------------------------|
A------------0--------------------------------------------|
E-0-0-0--3b-----------------------------------------------|
Tap to rate this tab
 
# A B C D E F G H I J K L M N O P Q R S T U V W X Y Z