Def Leppard - Me And My Wine tab

-------------------------------------------------------------------------------
			     ME AND MY WINE - Def Leppard
-------------------------------------------------------------------------------
Tabbed by: Isaias Garcia (TexasFury)

Tuning: Standard

===============================================================================

This tune is easy to play, rhythm-wise. Notated are the typical riffs used. There are 
variations throughout the song (like an occasional dropped or muted note) that don't merit 
tabbed exactly. The solo is more difficult, about advanced intermediate skill needed.

===============================================================================

Intro Figure

     E  E  E  E  E  E  E  E
E||--------------------------|
B||--------------------------|
G||--------------2-----------|
D||--3--2--------------------|
A||--------5--3-----3--2-----|
E||-----------------------3--|


4Xs

   Q    E  E  Q.     E      Q    E  E  Q.     E
|------------------------|------------------------|
|----------8--L------L\--|----------6--L------L\--|
|----------7--L------L\--|----------5--L------L\--|
|--2----2--5--L------L\--|--2----2--5--L------L\--|
|--0----0----------------|--0----0----------------|
|------------------------|------------------------|


Verse - Riff 1

   E  E  E  E  Q    E  E     E  E  E  E  Q    E  E
|-------------------------|-------------------------|
|-----------8--L----8-----|--6--------5--L----5-----|
|-----------7--L----7-----|--5--------5--L----5-----|
|--2--------5--L----5-----|--3--------5--L----5-----|
|--0--0--0-------------0--|-----0--0--3-------3--0--|
|-------------------------|-------------------------|


   E  E  E  E  Q    E  E     E  E  E  E  Q    Q
|-------------------------|-------------------------|
|-----------8--L----8-----|--6----------------------|
|-----------7--L----7-----|--5----------------------|
|--2--------5--L----5-----|--3--------2--L----------|
|--0--0--0-------------0--|-----0--0--0--L----------|
|-------------------------|-------------------3b----|

Verse - Riff 2 (play 3Xs)

   PM PM PM PM PM PM PM PM    PM PM PM PM PM PM PM PM
   E  E  E  E  E  E  E  E     E  E  E  E  E  E  E  E
|--------------------------|--------------------------|
|--------------------------|--------------------------|
|--2--2--2--2--2--2--2--2--|--5--5--5--5--5--5--5--5--|
|--0--0--0--0--0--0--0--0--|--5--5--5--5--5--5--5--5--|
|--------------------------|--3--3--3--3--3--3--3--3--|
|--------------------------|--------------------------|


Verse - Riff 3

   PM PM PM PM PM PM PM PM    PM PM PM PM PM PM PM
   E  E  E  E  E  E  E  E     E  E  E  E  E  E  E  E
|--------------------------|--------------------------|
|--------------------------|--------------------------|
|--2--2--2--2--2--2--2--2--|--------------------------|
|--0--0--0--0--0--0--0--0--|--0--0--0--0--0--0--0--0--|
|--2--2--2--2--2--2--2--2--|--1--1--1--1--1--1--1--0--|
|--------------------------|--------------------------|

Pre-chorus

   H.           E  E     Q    E  E  Q    E  E
|---------------------|-------------------------|
|---------------------|-------------------------|
|--2------------L-----|-------------------------|
|--2------------L-----|--4----4-----------------|
|--0------------L--0--|--2----2-----5----5--L\--|
|---------------------|----------3--3----3--L\--|


   W                   H         H
|-------------------|---------------------|
|-------------------|---------------------|
|--2----------------|--7S--------5--------|
|--2----------------|--7S--------5--------|
|--0----------------|--5S--------3--------|
|-------------------|---------------------|


   Q    E  E  E  E  E  E     H        H
|-------------------------|--------------------|
|-------------------------|--------------------|
|-------------------------|-----------7--------|
|-------------------------|--2--------7--------|
|--4----4--4--L--4--4--4--|--2--------5--------|
|--2----0--2--L--0--2--0--|--0-----------------|


   PM PM PM PM PM PM PM PM    PM PM PM PM PM PM PM PM
   E  E  E  E  E  E  E  E     E  E  E  E  E  E  E  E
|--------------------------|--------------------------|
|--------------------------|--------------------------|
|--------------------------|--------------------------|
|--3--3--3--3--3--3--3--3--|--5--5--5--5--5--5--5--5--|
|--3--3--3--3--3--3--3--3--|--5--5--5--5--5--5--5--5--|
|--1--1--1--1--1--1--1--1--|--3--3--3--3--3--3--3--3--|

Last 2 measures before solo

   E  E  E  E  E  E  E  E     Q    Q     Q     Q
|--------------------------|-------------------------|
|--------------------------|-------------------------|
|--2--2--2--2--2--2--2--2--|--2----L\----------------|
|--2--2--2--2--2--2--2--2--|--2----L\----------------|
|--0--0--0--0--0--0--0--0--|--0----L\----------------|
|--------------------------|------------------12\----|

Guitar Solo - Riff 1

   Q.     E  Q    E  E     E  E  E  E  H
|-----------------------|-----------------------|
|-----------------------|-----------------------|
|-----------------------|-----------------------|
|--4------4--4----4--4--|-----------------------|
|--2------2--2----2--2--|--2--0-----------------|
|-----------------------|--------3--2--3--------|

   Q.     E  Q    E  S S    E  E  E  E  Q.     E
|------------------------|------------------------|
|------------------------|------------------------|
|------------------------|------------------------|
|--4------4--L----L------|------------------------|
|--2------2--L----L--2-2-|--2--0--------5------5--|
|------------------------|--------3--2------------|

 Guitar Solo - Riff 2

   Q.     E  Q.     S S    E  E  E  E  H
|-----------------------|-----------------------|
|-----------------------|-----------------------|
|--6------6--L----------|-----------------------|
|--4------4--L------4-4-|--4--2-----------------|
|-----------------------|--------5--4--5--------|
|-----------------------|-----------------------|


   Q.     E  Q.     S S    E  E  E  E  H
|-----------------------|------------------------|
|-----------------------|------------------------|
|--6------6--L----------|------------------------|
|--4------4--L------4-4-|--4--2--------7~--------|
|-----------------------|--------5--4------------|
|-----------------------|------------------------|

Ending Riff

   E  E  E  E  E  E  E  E     Q    Q    H
|--------------------------|---------------------||
|--------------------------|---------------------||
|--------------2-----------|--2------------------||
|--3--2--------------------|--2------------------||
|--------5--3-----3--2-----|--0------------------||
|-----------------------3--|---------------------||

GUITAR SOLO

     E  S S E  E  Q     Q       E  E  E  E  E   E    E  E
E||--------------------------|-----------------------------|
B||--------------------------|-----------------------------|
G||--------------------------|-----4--------------------2--|
D||------------4--L~----4----|--L-----5------------2g4-----|
A||--2--2-2-2----------------|-----------5--LS--2----------|
E||--------------------------|-----------------------------|


                                                      PM
  Q     E  E   Q     E  E      E  E   E     E  Q      E   E
----------------------------|--------------------------------|
----------------------------|-----------------------------7--|
--4b----4--4b--L~----4--4b--|-----4b--Lpbr--L-------------7--|
----------------------------|------------------4~----(0)-----|
----------------------------|--------------------------------|
----------------------------|--------------------------------|


  E   E  E  E  E   E  E  E     E   E  E  E   E   E   E  E
----------------------------|------------------------------|
--Lb-----9--7--Lb-----9--7--|--Lb--------------------------|
--Lb-----9--7--Lb-----9--7--|--Lb-----7--9b--9b--Lb--7--7--|
------9------------9--------|------9-----------------------|
----------------------------|------------------------------|
----------------------------|------------------------------|


  E  E   E   E   E    E   E   E      E  E   E   E  E  E  E   E
----------------12p--11----------|------------------------------|
-----7--12--12---------------12--|--10--9-------------------14--|
--8----------------------11------|---------11--10--9--7---------|
---------------------------------|-----------------------9------|
---------------------------------|------------------------------|
---------------------------------|------------------------------|


   Q      E   E    Q      E   S  S
-----------------------------14-17-|
--17b----17---Lb---L~----17--------|
-----------------------------------|
-----------------------------------|
-----------------------------------|
-----------------------------------|


   E   E    E      S   S   E    S   S  S   S  S   S
--17--17b---Lpbr---Lp-15s-14h--15p-14---------------|
--------------------------------------17p-15-17p-14-|
----------------------------------------------------|
----------------------------------------------------|
----------------------------------------------------|
----------------------------------------------------|


                       |---3---|
   E   E   E   E   E   S   S   S  E   E      Q     E   E    E     E   E   E
-----------------------------------------|------------------------------------|
--14----------17--15--14h-15p-14-----14--|-------------------------------(0)--|
------16--14---------------------16------|--16b-------16b--16b~---L\----------|
-----------------------------------------|------------------------------------|
-----------------------------------------|------------------------------------|
-----------------------------------------|------------------------------------|


  Q     E  E  E     E  E  E      E  E   E  E   E     E  E  E
--------5-----x---------------|---------2---------------------|
-----------5--x-----------5b--|--L--5b-----5b--5pbr--5--2-----|
--4b----------4pbr--L--2------|----------------------------4--|
------------------------------|-------------------------------|
------------------------------|-------------------------------|
------------------------------|-------------------------------|


  E   E  E  E   E  E  E   E     E   E  E  E   Q    Q
---------2-------------------|--------------------------|
------2-----5b--L--2---------|--------------------------|
--4b------------------4b--4--|--2b----------------------|
-----------------------------|---------2--4~--L---------|
-----------------------------|------4-------------------|
-----------------------------|--------------------------|


   Q      E   E     Q      E   E       Q      E   E     E    E   E   E
-----------------------------------|----------------------------17--20b--|
--20b----20---Lpb---L~----20---Lb--|---L~----20---Lpb---L~--20-----------|
-----------------------------------|-------------------------------------|
-----------------------------------|-------------------------------------|
-----------------------------------|-------------------------------------|
-----------------------------------|-------------------------------------|


   S   S   S  S  S   S  E    S  S  E   S  S  E
--17h-20p-17----17h-20--Lb--20-17-----17-20--Lb--|
-------------20-------------------20-------------|
-------------------------------------------------|
-------------------------------------------------|
-------------------------------------------------|
-------------------------------------------------|


   E   E   E   E   E   E    E   E      E   S  S  E   S  S  E   S  S  E   E
---L--20--17------17---------------|----------------------------------------|
--------------20------20b--18--17--|--17--19-19-19--17-17-17--19-19-19--17--|
-------------------------------17--|--17--19-19-19--17-17-17--19-19-19--17--|
-----------------------------------|----------------------------------------|
-----------------------------------|----------------------------------------|
-----------------------------------|----------------------------------------|


   E   S  S  E   E   E   E   E   E
--------------------------------17--|
--17--19-19-19--17--17--19--19------|
--17--19-19-19--17--17--19----------|
------------------------------------|
------------------------------------|
------------------------------------|


   |---3--|
   S   S  S  S   S  S  S   S  S  S  S  S  S  E   E
--20p-17----20p-17----20p-17----20-17----20-17--20b--|
---------17--------17--------17-------17-------------|
-----------------------------------------------------|
-----------------------------------------------------|
-----------------------------------------------------|
-----------------------------------------------------|


   E   E   S   S  E   E   E    E   E       Q    Q    H
---L--20--17h-20-----17----------------|----------------------||
-----------------17-----------20-------|----------------------||
-------------------------19b------17b--|----------------------||
---------------------------------------|--19------------------||
---------------------------------------|----------------------||
---------------------------------------|----------------------||

Duration Legend
---------------
W - whole
H - half
Q - quarter
E - 8th
S - 16th
T - 32nd
X - 64th
. - note dotted


Tablature Legend
----------------
L - tied note
x - dead note
g - grace note
(n) - ghost note
h - hammer on
p - pull off
b - bend
br - bendRelease
pb - preBend
pbr - preBendRelease
brb - bendReleaseBend
S - shift slide
s - legato slide
/ -  slide into from below or out of upwards
\ -  slide into from above or out of downwards
~ - vibrato


Transcribed by Isaias Garcia (TexasFury)

http://profile.ultimate-guitar.com/TexasFury/
Tap to rate this tab
 
# A B C D E F G H I J K L M N O P Q R S T U V W X Y Z