Def Leppard - When Love And Hate Collide tab

-------------------------------------------------------------------------------
			     SONG NAME - when love and hate collides
-------------------------------------------------------------------------------
Tabbed by:totim
Email:

Tuning:
intro
e|------0--------0--------0--------0--------0--------0-------0-------|
B|--------1--------1--------1--------1--------1--------1-------1-----|
G|----0--------0--------0--------0--------0--------0-------0---------|
D|-------------------------------------------------------------------|
A|-----------3--------0--------------------------3-------0-------3---|
E|-3---------------------------3--------3----------------------------|


[G] [C] [Am] [G] x2


Verse1

                  C                                      G
You could have a change of heart, if only you would only change your mind
             Am                                  G
instead of slamming down the phone babe, for the hundredth time. Got your
        C                            G                   Am
number on my wall, but I aint gonna make that call. When divided we stand
       G
babe, united we fall.

 C                                         G
Got the time, got the chance, gonna make it,got my hands on your heart gonna
           Am                 G
take it. All I know I can't fight this way


Chorus

                   C                                 G
You could have a change of heart, if you would only change your mind,
          Am                    G                        C         Am
'cos i'm crazy 'bout you baby, time after time. (without you) One night alone,
           C                G            Am             G
is like a year without you baby, do you have heart of stone.
         Em                      C            G                C
Without you, cant stop the hurt inside, when love and hate collide.


Verse2

                C                                    G
I don't wanna fight no more, I don't know what were fighting for. When we
  Am
treat
                         G                           c
each other baby, like an act of war. I could tell a million lies, but it
               G                     Am
would come as no suprise. When the truth is like a stranger it hits you
 C                G
right between the eyes
C                                        G
theres a time, and a place, and a reason, and I know i've got a love to believe in.
Am        G        C         G             C       G         Am
All I know got to win this time.(without you) One night alone, is like
   C               G            Am              G            Em
a year without you baby, do you have heart of stone. (without you) cant
                 G                           C
stop the hurt inside, when love and hate collide.

Solo [Am] [C] [Am] [C] [G]
solo
e|------------------------6/8---------------------------------------------|
B|----------------5-5-----7/8--7p5-7/9---7/9-9-10-7/9-p7p5-7-5--7---7/9\7-|
G|---2-h4-4/6---6-----6-------------------------------------------6-------|
D|-4----------------------------------------------------------------------|
A|------------------------------------------------------------------------|
E|------------------------------------------------------------------------|

e|-----------------9--9-----7---7-7/9--------------------9----9------------|
B|-----7---/-9/11--11-11--9---9--------9\7--7-5-7/9--9/11---11---11\9-9\7--|
G|-6/8---8-/-10/12-12-12---------------------------------------------------|
D|-------------------------------------------------------------------------|
A|-------------------------------------------------------------------------|
E|-------------------------------------------------------------------------|

Chorus / Ending

                   C                                  G
You could have a change of heart, if you would only change your mind,
           Am                   G     Am             C        G      Am  G
'cos i'm crazy bout you baby, crazy,crazy, (without you) One night alone,
           C                G            Am               G             C
is like a year without you baby, do you have a heart of stone (without you)
            G              Am               G            C             G
one night alone is like a year without you baby, if you have a heart at all
          Em                       G                           c
(without you)cant stop the hurt inside, when love and hate collide.

************************************

| /   slide up
| \   slide down
| h   hammer-on
| p   pull-off
************************************
Tap to rate this tab
 
# A B C D E F G H I J K L M N O P Q R S T U V W X Y Z