Song name
# A B C D E F G H I J K L M N O P Q R S T U V W X Y Z

Def Leppard - Two Steps Behind tab

Again, I have borrowed from all the other tabs on here and tweaked them into one SUPERTAB. 

Two steps Behind- Def Leppard
Standard Tuning

intro

e------------9-----------7----5-5----|
b---5/10-10--10-10--10\8-8-8--7-7----|
g---6/9--9--------------------7------| (2x)
d------------------------------------|
a------------------------------------|
e------------------------------------|

Verse:
	      [A]  [D]        [G]       [D] 
	Walk away,     if you want to.
	      [A]  [D]        [G]       [D] 
	It's okay      if you need to.
		[A]	 [D]           [E]   [D]
	You can run, but you can never hide
		   [A]          [D]        [E]    [D]
	From the shadow that's creepin up beside you.

Chorus:
  [F#m]                           [D]	
	There's a magic runnin' through your soul
	    [G]   		   [E]
	But you can't have it all.     (What ever you do)
  [A]		     [D]     [E]		[D] 
	I'll be two steps behind you     (Where ever you go)
  [A]                [D]     [E]        [D]
	And I'll be there to remind you
                [A]          [D]             [E]     [G]
	That it only takes a minute of your precious time
                 [D]
	To turn around, I'll be two steps behind.

	[A]  [D]  [G]  [D] (x2)

Verse:       
	          [A]  [D]           [G]      [D] 
	Take the time      to think about it.
	              [A]        [D]                [G]          [D]
	Just walk the line, you know you just can't fight it.
	              [A]          [D]              [E]   [D]
	Take a look around, you'll see what you can find
	          [A]         [D]        [E]       [D]
	Like the fire that's burnin' up inside me.

Chorus:
[F#m]                           [D]	
	There's a magic runnin' through your soul
	    [G]   		   [E]
	But you can't have it all.     (What ever you do)
  [A]		     [D]     [E]		[D] 
	I'll be two steps behind you     (Where ever you go)
  [A]                [D]     [E]        [D]
	And I'll be there to remind you
                [A]          [D]             [E]     [G]
	That it only takes a minute of your precious time
                 [D]
	To turn around, I'll be two steps behind.

	[A]  [D]  [G]  [D] (x2)

Solo over verse:

e|--------------------------------------10/12-12-12-12\10-10-10-9--9--9----|
B|-2/5-55-5555\3-33-33-----------------12/14-14-14-14\12-12-12-10-10-10---|
G|---------------------2h4-44-4-2-44/6------------------------------------|
D|-------------------------------------------------------------------------|
A|-------------------------------------------------------------------------|
E|-------------------------------------------------------------------------|

e|-9--9---9h10-10-10-10--7-7-7-7--5-5--------------------------------------|
B|-10-10--1010-10-10-10--8-8-8-8--7-7----17--17--17--17-17-17-17-17--------|
G|---------------------------------------16b-16b-16b-14-14-14-14-14--------|
D|-------------------------------------------------------------------------|
A|-------------------------------------------------------------------------|
E|-------------------------------------------------------------------------|

e|-----------------------------------------------------5---------5-7-5-7/9-|
B|-------------3/5-5-5-5\3-3-3-3-3-3-33--3/5-5-5-7-5-7---5-7-5-7-----------|
G|-------------4/6-6-6-6\4-4-4-2-2-2-22------------------------------------|
D|-------------------------------------------------------------------------|
A|---------2-0-------------------------------------------------------------|
E|-0-0-2/4-----------------------------------------------------------------|

Chorus:
[F#m]                           [D]	
	There's a magic runnin' through your soul
	    [G]   		   [E]
	But you can't have it all.     (What ever you do)
  [A]		     [D]     [E]		[D] 
	I'll be two steps behind you     (Where ever you go)
  [A]                [D]     [E]        [D]
	And I'll be there to remind you
                [A]          [D]             [E]     [G]
	That it only takes a minute of your precious time
                 [D]
	To turn around, I'll be two steps behind.

	[A]  [D]  [G]  [D] (x2)
Tap to rate this tab
 
# A B C D E F G H I J K L M N O P Q R S T U V W X Y Z