Song name
# A B C D E F G H I J K L M N O P Q R S T U V W X Y Z

Def Leppard - Have You Ever Needed Someone So Bad tab

Def Leppard - Have You Ever Needed Someone So Bad
Submitted By: Grant Millar
EMail: gozzaoz@optusnet.com.au


Intro
     E                               A
> e----------------------|----------------------|
> B--5-----7-----5----4--|----------------------|
> G----4------4----4-----|--4---2------4---2----|  X 2
> D----------------------|---------2----2-------|
> A----------------------|----------------------|
> E----------------------|----------------------|


E                     A
Here I am, I'm in the wrong bed again
E                        A
It's a game I just can't win
E                       A
There you are breathin' soft on my skin, yeah
E                      A
Still you won't let me in , So come on

B                          A     E
Why save your kisses for a rainy day
B                             A     E
Baby let the moment take your heart away
C#                   A          B
Have you ever needed someone so bad, yeah
E                                A
Have you ever wanted someone you just couldn't have
C#m                                A
Did you ever try so hard that your world just comes apart
 C#m                 B          A
Have you ever needed someone so bad

And to the girl I gotta have

I gotta have you baby, yeah

     E                               A
> e----------------------|-----------------------|
> B--5-----7-----5----4--|-----------------------|
> G----4------4----4-----|--4---2----4-----2-----|  X 1
> D----------------------|---------2-----2-------|
> A----------------------|-----------------------|
> E----------------------|-----------------------|


E                      A
There you go, midnight promises again, yeah
E                         A
But they're broken by the dawn
E                     A
You wanna go further, faster everyday, baby
E                             A
But in the morning you'll be gone, And I'm alone


B                          A     E
Why save your kisses for a rainy day
B                             A     E
Baby let the moment take your heart away
C#                   A          B
Have you ever needed someone so bad, yeah
E                                A
Have you ever wanted someone you just couldn't have
C#m                                A
Did you ever try so hard that your world just comes apart
 C#m                 B          A
Have you ever needed someone so bad

Bridge intro instrumental

                     P H P                       T~~~~~~
> e--------------------------|-----------------------------|
> B------7---5----4----------|------5----4----2------------|
> G--44----4---4----4-2--4-2-|---22---2----2----2----------|
> D--------------------------|-----------------------------|
> A--------------------------|-----------------------------|
> E--------------------------|-----------------------------|

  (P=Pulloff,H=Hammer,T=Tremolo)

B
Every dream I dream is like
A
Some kinda rash 'n' reckless scene
B
To give out such crazy love
A
You must be some kinda drug
B
And if my time don't ever come
A
For me you're still the one
B                  B13                  (B13= Barre B chord 2nd fret & add g# on e string)
Damned if I don't, damned if I do
A
I gotta get a fix on you

C#                   A          B
Have you ever needed someone so bad, yeah
E                                A
Have you ever wanted someone you just couldn't have
C#m                                A
Did you ever try so hard that your world just comes apart

C#                   A          B
Have you ever needed someone so bad, so bad
E                                A
Have you ever wanted someone, wanted someone, yeah
C#m                                A
Did you ever try so hard that your world just comes apart
 C#m                 B          A
Have you ever needed someone so bad

And to the girl I gotta have
I gotta have you baby, yeah

E / / / | A / / / |  guitar solo to Fin

It's a game I just can't win, oh

Have you ever needed someone so bad, yeah
Have you ever wanted someone
Have you ever wanted someone, you just couldn't have
Did you ever tried so hard, yeah


 Bridge Riff
Lyric: Every dream I dream is like, Some kinda rash 'n' reckless scene. etc
          B                         A
      > e------------------------|-----------------------------|
      > B------------------------|-----------------------------|
      > G------------------------|-----------------------------|
      > D--4-4---------------4---|--2-2-------------------2----|
      > A--2-2---------------2---|--0-0-------------------0----|
      > E----------------------0-|---------------------------0-|
Tap to rate this tab
# A B C D E F G H I J K L M N O P Q R S T U V W X Y Z