Song name
# A B C D E F G H I J K L M N O P Q R S T U V W X Y Z

Def Leppard - Mirror Mirror Look Into My Eyes tab

MIRROR, MIRROR (LOOK INTO MY EYES)
As recorded by Def Leppard
From HIGH N' DRY
Transcribed by Tricky
Standard Tuning (E A D G B E)

****************************************************************************

Intro

  Gtr I
|-----------------|-----------------|----|
|-3---------------|-3---------------|----|
|-2------7-7-7--0-|-3------5-5-5--0-|----|
|-0------0-0-0--0-|-0------0-0-0--0-|----|
|-----------------|-----------------|----|
|-----------------|-----------------|----|
|
| Gtr II
|-----------------|-----------------|----|
|-----------------|-----------------|----|
|-----------------|-----------------|----|
|-----------------|-----------------|----|
|-----------------|-----------------|----|
|-----------------|-----------------|----|


  Gtr I
|----------------|------------------|----|
|-3--------------|-3-----3-3-3--3-3-|----|
|-2-----7-7-7--0-|-3-----2-2-2--2-2-|----|
|-0-----0-0-0--0-|-0-----0-0-0--0-0-|----|
|----------------|------------------|----|
|----------------|------------------|----|
|
| Gtr II
|----------------|------------------|----|
|----------------|------------------|----|
|----------------|-------3-3-3--3-3-|----|
|----------------|-------2-2-2--2-2-|----|
|----------------|-------0-0-0--0-0-|----|
|----------------|------------------|----|


Verses

  Gtr I
|----------------|-----------------||----|
|-3--------------|-3--------------o||----|
|-2-----7-7-7--0-|-3-----5-5-5--0--||----|
|-0-----0-0-0--0-|-0-----0-0-0--0--||----|
|----------------|----------------o||----|
|----------------|-----------------||----|
|
| Gtr II
|----------------|-----------------||----|
|----------------|----------------o||----|
|----------------|-----------------||----|
|----------------|-----------------||----|
|----------------|----------------o||----|
|----------------|-----------------||----|


  Gtr I
                           4x
|------------|-------------||----|
|-3----------|-3----------o||----|
|-2----------|-3-----------||----|
|-0----------|-0-----------||----|
|------------|------------o||----|
|------------|-------------||----|
|
| Gtr II
|                          4x
|------------|-------------||----|
|------------|------------o||----|
|------------|-------------||----|
|------------|-------------||----|
|------------|------------o||----|
|------------|-------------||----|


Pre-Chorus
 
 Gtr I
                                   4x
|----------------|-----------------||----|
|-2--------------|-3--------------o||----|
|-3-----7-7-7--0-|-3-----5-5-5--0--||----|
|-0-----0-0-0--0-|-0-----0-0-0--0--||----|
|----------------|----------------o||----|
|----------------|-----------------||----|
|
| Gtr II
|                                  4x
|----------------|-----------------||----|
|-2--------------|-3--------------o||----|
|-3-----7-7-7--0-|-3-----5-5-5--0--||----|
|-0-----0-0-0--0-|-0-----0-0-0--0--||----|
|----------------|----------------o||----|
|----------------|-----------------||----|


Chorus

  Gtrs I, II
|--1-1-1--0-0--1-1-|------------------|----|
|--3-3-3--3-3--3-3-|------------------|----|
|--2-2-2--0-0--2-2-|------------------|----|
|--0-0-0--0-0--0-0-|--3-3-3-3---------|----|
|------------------|--1-1-1-1-1--0----|----|
|------------------|---------------3--|----|


  Gtrs I, II
|--1-1-1--0-0--1-1-|------------------|----|
|--3-3-3--3-3--3-3-|------------------|----|
|--2-2-2--0-0--2-2-|------------------|----|
|--0-0-0--0-0--0-0-|------------------|----|
|------------------|--5-5-5--3-3-1-0--|----|
|------------------|--3-3-3-----------|----|


  Gtrs I, II
|--1-1-1--0-0--1-1-|------------------|----|
|--3-3-3--3-3--3-3-|------------------|----|
|--2-2-2--0-0--2-2-|------------------|----|
|--0-0-0--0-0--0-0-|--3-3-3-3---------|----|
|------------------|--1-1-1-1-1--0----|----|
|------------------|---------------3--|----|


  Gtrs I, II
|--1-1-1--0-0--1-1-|------------------|----|
|--3-3-3--3-3--3-3-|------------------|----|
|--2-2-2--0-0--2-2-|------------------|----|
|--0-0-0--0-0--0-0-|------------------|----|
|------------------|--5-5-5--3-3-2-3--|----|
|------------------|--3-3-3-----------|----|


Interlude

  Gtr I
|-------------------|--------------------||----|
|----3/---15--------|----3/---15--------o||----|
|----2/---14--------|----3/---15---------||----|
|-------------------|--------------------||----|
|-------------------|-------------------o||----|
|-------------------|--------------------||----|
|
| Gtr II
|-------------------|--------------------||----|
|-3-----------------|-3-----------------o||----|
|-2--------7-7-7--0-|-3--------5-5-5--0--||----|
|-0--------0-0-0--0-|-0--------0-0-0--0--||----|
|-------------------|-------------------o||----|
|-------------------|--------------------||----|


  Gtr I
|-----0-------------0-|-----0---0-------0--|----|
|-0h3-----0h3-6---5---|-0h3-----------3----|----|
|---------------------|-----------3-5------|----|
|---------------------|--------------------|----|
|---------------------|--------------------|----|
|---------------------|--------------------|----|
|
| Gtr II
|---------------------|--------------------|----|
|---------------------|--------------------|----|
|-----2---3-----5-----|---2-2-2-3-----5----|----|
|-----2---3-----5-----|---2-2-2-3-----5----|----|
|-0-----0---------0---|-----------------0--|----|
|---------------------|--------------------|----|


  Gtr I
|-----0-------------0-|-----0---0-5-4------|----|
|-0h3-----0h3-6---5---|-0h3-----------6----|----|
|---------------------|--------------------|----|
|---------------------|--------------------|----|
|---------------------|--------------------|----|
|---------------------|--------------------|----|
|
| Gtr II
|---------------------|--------------------|----|
|---------------------|--------------------|----|
|---2-2-2-3-----------|---2-2-2-3-----5----|----|
|---2-2-2-3---5-------|---2-2-2-3-----5----|----|
|---------------0-----|-----------------0--|----|
|---------------------|--------------------|----|


  Gtr I
|-----0-------------0-|-----0---0-------0--|----|
|-0h3-----0h3-6---5---|-0h3-----------3----|----|
|---------------------|-----------3-5------|----|
|---------------------|--------------------|----|
|---------------------|--------------------|----|
|---------------------|--------------------|----|
|
| Gtr II
|---------------------|--------------------|----|
|---------------------|--------------------|----|
|---2-2-2-3-----5-----|---2-2-2-3---5------|----|
|---2-2-2-3-----5-----|---2-2-2-3---5------|----|
|-----------------0---|---------------0----|----|
|---------------------|--------------------|----|


  Gtr I
|-----0-------------0-|-------------------------|----|
|-0h3-----0h3-6---5---|-/10-----9----/13---12---|----|
|---------------------|-------------------------|----|
|---------------------|-------------------------|----|
|---------------------|-------------------------|----|
|---------------------|-------------------------|----|
|
| Gtr II
|---------------------|-------------------------|----|
|---------------------|-------------------------|----|
|---2-2-2-3-----5-----|-----2-----3------5----7-|----|
|---2-2-2-3-----5-----|-----2-----3------5----7-|----|
|-----------------0---|-------0-0-------------5-|----|
|---------------------|-------------------------|----|


Solo

  Gtr I
|-----------------------------|-----------------------------|----|
|--10-10-10--8-8-8--10-10-10--|--10-10-10--8-8-8--10-10-10--|----|
|-----------------------------|-----------------------------|----|
|-----------------------------|-----------------------------|----|
|-----------------------------|-----------------------------|----|
|-----------------------------|-----------------------------|----|
|
| Gtr II
|-----------------------------|-----------------------------|----|
|-----------------------------|-----------------------------|----|
|--10-10-10--9-9-9--10-10-10--|--10-10-10--9-9-9--10-10-10--|----|
|-----------------------------|-----------------------------|----|
|-----------------------------|-----------------------------|----|
|-----------------------------|-----------------------------|----|


  Gtr I
|-----------------------------------|---------------------------------------|--|
|--10-10-10--8-8-8--10-10-10--11-11-|--11--10-10-10--8-8-8--10-10-10--11-11-|--|
|-----------------------------------|---------------------------------------|--|
|-----------------------------------|---------------------------------------|--|
|-----------------------------------|---------------------------------------|--|
|-----------------------------------|---------------------------------------|--|
|
| Gtr II
|-----------------------------------|---------------------------------------|--|
|------------------------------8--8-|---8------------------------------8----|--|
|--10-10-10--9-9-9--10-10-10--------|------10-10-10--9-9-9--10-10-10--------|--|
|-----------------------------------|---------------------------------------|--|
|-----------------------------------|---------------------------------------|--|
|-----------------------------------|---------------------------------------|--|


  Gtr I
|--------------------------------------|
|-11--11-11-11--11-11-11--11-11-11--12-|
|--------------------------------------|
|--------------------------------------|
|--------------------------------------|
|--------------------------------------|
|
| Gtr II
|--------------------------------------|
|--------------------------------------|
|-10--10-10-10---9--9--9--10-10-10--10-|
|--------------------------------------|
|--------------------------------------|
|--------------------------------------|


|------------------------------------------|--|
|-12-12--12-12-12--12-12-12--12-12-12--13--|--|
|------------------------------------------|--|
|------------------------------------------|--|
|------------------------------------------|--|
|------------------------------------------|--|
|
|------------------------------------------|--|
|---------------------------------------8--|--|
|-10-10--10-10-10---9--9--9--10-10-10------|--|
|------------------------------------------|--|
|------------------------------------------|--|
|------------------------------------------|--|


  Gtrs I, II
|---------------|----------------|----|
|---------------|----------------|----|
|---5-3-5-5-----|---5-5-5-5------|----|
|---5-3-5-5-----|---5-5-5-5----0-|----|
|-------------3-|----------------|----|
|---------------|----------------|----|


  Gtrs I, II
|---5-5-5-5-----|---5-5-5-5-5-5-5--|----|
|---6-6-6-6-----|---6-6-6-6-6-6-6--|----|
|---5-5-5-5-----|---5-5-5-5-5-5-5--|----|
|------------0--|------------------|----|
|---------------|------------------|----|
|---------------|------------------|----|


Outro Solo

  Gtr I
|-----------------------|-------------------10------------|----|
|-6--6-6-6--5--5--6--6--|----------------10----13b15------|----|
|-7--7-7-7--5--5--7--7--|--10-12-(12)b14------------------|----|
|-----------------------|---------------------------------|----|
|-----------------------|---------------------------------|----|
|-----------------------|---------------------------------|----|


  Gtr I
|---------------|------------------|----|
|---------------|------------------|----|
|---------------|------------------|----|
|---------------|-3------3--3------|----|
|---------------|----5---------5---|----|
|---------------|------------------|----|


  Gtr I
|-----------------------------------|----10----------------------|----|
|-----------------------------------|-10----13b15----10----------|----|
|---------------------10-12-(12)b14-|-------------------12b14-12-|----|
|---------------10-12---------------|----------------------------|----|
|------8--10-12---------------------|----------------------------|----|
|-8-10------------------------------|----------------------------|----|


  Gtr I
|-------------------|-------------------------------------|----|
|------------13-----|--13b15--13-----13-----13------------|----|
|-10---------12b14--|--12-----12b14--12b14-----12-(12)-10-|----|
|-----12------------|-------------------------------------|----|
|-------------------|-------------------------------------|----|
|-------------------|-------------------------------------|----|


  Gtr I
|---------------------|---------10----------13-----------------13----|----|
|---------------------|------10-----13-(13)----13-(13)-13-(13)----13-|----|
|--------10-10-----12-|--12------------------------------------------|----|
|--12----------12-----|----------------------------------------------|----|
|---------------------|----------------------------------------------|----|
|---------------------|----------------------------------------------|----|


  Gtr I
|------13---------13---------13---------13----------|
|-(13)----13-(13)----13-(13)----13-(13)----13-(13)--|
|---------------------------------------------------|
|---------------------------------------------------|
|---------------------------------------------------|
|---------------------------------------------------|


|--15b17--15b17--15b17-(15)b17r13-------|----|
|---------------------------------15b18-|----|
|---------------------------------------|----|
|---------------------------------------|----|
|---------------------------------------|----|
|---------------------------------------|----|


  Gtr I
|------------------|---------------------------------|----|
|-(15)-------------|---------------------------------|----|
|------------------|---------------------------------|----|
|------------------|-----3-3-5-(5)-(5)-3----5--5-3---|----|
|--------------3---|--5------------------5---------5-|----|
|------------------|---------------------------------|----|


  Gtr I
|-------------|--------------------|----|
|-------------|--------------------|----|
|-------------|--------------------|----|
|-------------|--5-(5)-3-----------|----|
|-------------|-----------5-5-3-5--|----|
|-------------|--------------------|----|
Tap to rate this tab
# A B C D E F G H I J K L M N O P Q R S T U V W X Y Z