Song name
# A B C D E F G H I J K L M N O P Q R S T U V W X Y Z

Def Leppard - 10538 Overdrive tab

PTL                Def leppard – 10538 Overdrive intro
                                       From “Yeah!”

By Sanjeev George and Thomas George
SanjeevGeorge123@yahoo.co.in


e|-----------------------------------------------|
B|-----------------------------------------------|
G|-------4------4----4-------4------4----4-------|
D|-----4------4------------4------4--------------|
A|---2------2------2-----0------0------0---------|
E|-----------------------------------------------|

e|-----------------------------------------------|
B|-----------------------------------------------|
G|--------4------4----4--------4-----4----4------|
D|------4------4-------------4-----4-------------|
A|-----------------------------------------------|
E|---4------4------4------3-----3------3---------|

Play as many times as required, whenever required.
Tap to rate this tab
# A B C D E F G H I J K L M N O P Q R S T U V W X Y Z