Song name
# A B C D E F G H I J K L M N O P Q R S T U V W X Y Z

Def Leppard - Two Steps Behind tab

    A     D             G      D          A          D 
e|---------------------------------------10/12-1212-121212-12/10-10-10h12-10--|
B|-2/5-55-555-5/3-3h5-3------------------12/14-1414-141414-14/12-12-12----12--|
G|----------------------2h4-44-4-2-4-4/6--------------------------------------|
D|----------------------------------------------------------------------------|
A|----------------------------------------------------------------------------|
E|----------------------------------------------------------------------------|

    G          D                    A         D
e|-9h10--1010-101010-10p9-77-5-----12-12-12--12-12-12----|
B|-1010--1010-101010-10---88-7-----12b12b12b-10-10-10----|
G|-------------------------------------------------------|
D|-------------------------------------------------------|
A|-------------------------------------------------------|
E|-------------------------------------------------------|
   E       D    A      D               E         D    
e|----------------------------------------------------5---------5-7-5-7/9-|
B|-------------3/5-55-555-5/3-3-3---3-3/5-5-5---7-5-7---5-7-5-7-----------|
G|-------------4/6-66-666-6/4-4-4p2-2-------------------------------------|
D|------------------------------------------------------------------------|
A|---------2p0------------------------------------------------------------|
E|-0-0-2h4----------------------------------------------------------------|
Tap to rate this tab
 
# A B C D E F G H I J K L M N O P Q R S T U V W X Y Z