Song name
# A B C D E F G H I J K L M N O P Q R S T U V W X Y Z

Def Leppard - Another Hit And Run tab

This is about all I have for fight know. 
I've been pretty busy lately.
I should have the rest of they song here pretty soon.

Tuning: Standard;


Intro:

e|--------------------------------|
B|--------------------------------|
G|2-2-2---2-2-2--2-2-2------------|
D|2-2-2---2-2-2--2-2-2------------|
A|0-0-0---0-0-0--0-0-0------------|
E|--------------------------------|

1st guitar
e|------------------------------------------------------12-12\-|
B|-13-13-13-12-12-12-15-13-13\-----13-13-13-12-12-12-15--------|
G|-------------------------------------------------------------|
D|-------------------------------------------------------------|
A|-------------------------------------------------------------|
E|-------------------------------------------------------------|

2nd guitar
e|-------------------------------------------------------------|
B|-------------------------------------------------------------|
G|---------------2-------2-2-2-----------------2---------2-2-2-|
D|---------------2-------2-2-2-----------------2---------2-2-2-|
A|-2-------------0-------0-0-0------2----------0---------0-0-0-|
E|-----3---------------------------------3---------------------|

1st guitar
e|-----------------------------------------------------12-12-|
B|-13-13-13-12-12-12-15-13-13\----13-13-13-12-12-12-15-------|
G|-----------------------------------------------------------|
D|-----------------------------------------------------------|
A|-----------------------------------------------------------|
E|-----------------------------------------------------------|

2nd guitar
e|-------------------------------------------------------------|
B|-------------------------------------------------------------|
G|----------2----------2-2-2---------------------2---------5---|
D|----------2----------2-2-2---------------------2---------5---|
A|-2--------0----------0-0-0-----2---------------0---------3---|
E|-----3------------------------------3------------------------|

1st guitar
e|-------------------------------|
B|-------3-----------------------|
G|-5--4-----5--2-----------------| repeat this a couple of times
D|---------------2---------------|
A|-----------------0-------------|
E|-------------------------------|

2nd guitar
e|-------------------------------|
B|-------------------------------|
G|--------------2-2-2------------| reapeat this a couple of times
D|--------------2-2-2------------|
A|--------------0-0-0------------|
E|-------------------------------|

Please Rate and Comment. I accept criticism to
************************************

| /   slide up
| \   slide down
| h   hammer-on
| p   pull-off
| ~   vibrato
| +   harmonic
| x   Mute note
| b   Bend
| pb  Pre-bend
| br  Bend release
| pbr Pre-bend release
| brb Bend release bend

************************************
Tap to rate this tab
# A B C D E F G H I J K L M N O P Q R S T U V W X Y Z