Song name
# A B C D E F G H I J K L M N O P Q R S T U V W X Y Z

Def Leppard - White Lightning tab

-------------------------------------------------------------------------------
	         SONG NAME: White Lighting - Band Name: Def Leppard
-------------------------------------------------------------------------------
Tabbed by: Defleppardrocks

Tuning: Standard

Intro:

e|-----------------------7/8-7--6-|-----------------------------7-6-----------|
B|--------------------------------|-------------------------------------------|
G|6-3-4-6-----6hbr-4-3------------|------6--6hbr------------------------------|
D|--------------------------------|8--9-----------9-8---6---8-----------------|
A|--------------------------------|-------------------------------------------|
E|--------------------------------|-------------------------------------------|

e|----------------------------------------------------------------------------|
B|----------------------------------------------------------------------------|
G|9------------9-----------------9------------9-------------9------------9/11-|
D|--9-8----------9-8----------------9-8---------9-8---------9------------9/11-|
A|------9------------9-7--7/9------------9-----------9--9---7------------7/9--|
E|------------------------------------------------------7---0--0---0wb--------|


1st Guitar
e|----------------------------------------------------------------------------|
B|-----------------6---5------------------------------------------------------|
G|---6--7--6-----5---5----------6-7-6------5--5-7-----------------------------|
D|7----------7---------------7--------7---------------------------------------|
A|------------------------------------------------------3---3-----------------|
E|--------------------------------------------------3-5---5---5---------------|

2nd Guitar
e|---------------------------------------------------------------------------|
B|---------------------------------------------------------------------------|
G|----------------------------------------10--7-7----------------------------|
D|----------------------------------------10--7-7----------------------------|
A|-----------------------------------------8--5-5------3----3----------------|
E|-------------------------------------------------3-5----5---5--------------|

1st guitar
e|---------------------------------------------------------------------------|
B|-------------------6-----5-------------------------------------------------|
G|---6--7--6------5-----5---------6--7--6------5--5-7------------------------|
D|7-----------7----------------7-----------7---------------------------------|
A|---------------------------------------------------------------------------|
E|---------------------------------------------------------------------------|

2nd guitar
e|---------------------------------------------------------------------------|
B|---------------------------------------------------------------------------|
G|--------------------------------------------10--7-7------------------------|
D|--------------------------------------------10--7-7------------------------|
A|---------------------------------------------8--5-5------------------------|
E|---------------------------------------------------------------------------|


Verse:

1st Guitar
e|---------------------------------------------------------------------------|
B|-----------3----------------------6/8-----------------3--------------------|
G|-------------3--------------------5/7-------------------3------------------|
D|---------------3-5----------------------------------------3-5--------------|
A|---------------------------------------------------------------------------|
E|---------------------------------------------------------------------------|

2nd guitar
e|---------------------------------------------------------------------------|
B|-8--6---6---4--------8--6----6---4------8---6----6---4---------------------|
G|-7--5---5---3--------7--5----5---3------7---5----5---3---------------------|
D|---------------------------------------------------------------------------|
A|---------------------------------------------------------------------------|
E|---------------------------------------------------------------------------|

1st guitar
e|---------------------------------------------------------------------------|
B|--------------------------------------------3-----------------------6/8----|
G|----------------------------------------------3---------------------5/7----|
D|------------------------------------------------3-5------------------------|
A|---------------------------------------------------------------------------|
E|---------------------------------------------------------------------------|

2nd Guitar
e|---------------------------------------------------------------------------|
B|8--6---6-----------6------------8--6---6---4-----------8--6---6---4--------|
G|7--5---5--8-8---------5-4-------7--5---5---3-----------7--5---5---3--------|
D|----------8-8-------------6------------------------------------------------|
A|----------6-6--------------------------------------------------------------|
E|---------------------------------------------------------------------------|

1st Guitar
e|------------------|--------------------------------------------------------|
B|----------3-------|--------------------------------11----------------------|
G|------------3-----|-----------------------------7--8-----------------------|
D|--------------3-5-|--------------------------8-----------------------------|
A|------------------|--------------------------------------------------------|
E|------------------|--------------------------------------------------------|

2nd Guitar            
e|------------------|--------------------------------------------------------|
B|8--6---6--4-------|--8--6--------------------------------------------------|
G|7--5---5--3-------|--7--5---10-10-----8-8-8--------8-----------------------|
D|------------------|---------10-10-----8-8-8--------8-----------------------|
A|------------------|---------8--8------6-6-6--5-----6-----------------------|
E|------------------|-----------------------------6--------------------------|

 1st Guitar

e|---------------------------------------------------------------------------|
B|-------------------------------------------8-------------------------------|
G|-------------------------------------3--5--5-------------------------------|
D|---------------------------------------------------------------------------|
A|---------------------------------------------------------------------------|
E|---------------------------------------------------------------------------|


2nd Guitar
e|----------------------------------------------------------------------------|
B|----------------------------------------------------------------------------|
G|----------------------------------------------------------------------------|
D|----8-----8-----8-----8-----8-----8--7--3--5------5-----5-----5-----5-----5-|
A|6-6-6-6-6-6-6-6-6-6-6-6-6-6-6-6-6-6--5--1--3--3-3-3-3-3-3-3-3-3-3-3-3-3-3-3-|
E|----------------------------------------------------------------------------|

1st Guitar
e|---------------------------------------------------------------------------|
B|------------11---------------------------------------8---------------------|
G|---------7--8----------------------------------3--5--5---------------------|
D|------8--------------------------------------------------------------------|
A|---------------------------------------------------------------------------|
E|---------------------------------------------------------------------------|

2nd Guitar
e|---------------------------------------------------------------------------|
B|---------------------------------------------------------------------------|
G|---------------------------------------------------------------------------|
D|----5--3--7--8------8-----8-----8-----8-----8--3--5------------------------|
A|3-3-3--1--5--6--6-6-6-6-6-6-6-6-6-6-6-6-6-6-6--1--3--3---------------------|
E|-----------------------------------------------------1---------------------|

Please Rtae and Comment. This is all i have for right now. I will be putting the rest on soon.

************************************

| /   slide up
| \   slide down
| h   hammer-on
| p   pull-off
| ~   vibrato
| +   harmonic
| x   Mute note
| b   Bend
| pb  Pre-bend
| br  Bend release
| pbr Pre-bend release
| brb Bend release bend

************************************
Tap to rate this tab
 
# A B C D E F G H I J K L M N O P Q R S T U V W X Y Z