Song name
# A B C D E F G H I J K L M N O P Q R S T U V W X Y Z

Def Leppard - Pearl Of Euphoria tab

     Def leppard – pearl of euphoria
         From the album “Slang”

By Sanjeev George and Thomas George
Contact at sanjeevgeorge123@yahoo.co.in

| b  bend
| r  release bend
| /  slide up 
| \  slide down
| h  hammer-on
| p  pull-off
| ~  hold note ands let ring
| v  vibrato
| *  drop note with tremolo and raise back to note indicated
| +  pinch harmonic

Intro
Bass lines
G|----------------------------------------------------------------------------------------| 
D|----------------------------------------------------------------------------------------|
A|----------------------------------------------------------------------------------------|
E|--12--12-12-12--12-12---12-12-12-12-12\10—12p10--10--10-10---10-10-10-10--10-10-10/12---|
repeat as many times as required
   
 Same thing can be played on notes 7 and 5 on the A string……..just the same

   
At 0:40 sec
Chorus (guitar 1) distorted
e|-------------------------------------|
B|-------------------------------------|
G|---9~-------------------------7~-----|
D|---9~-------5~-------7~-------7~-----|
A|---7~-------5~-------7~-------5~-----|
E|------------3~-------5~--------------|

Guitar 2 
e|--0---------0----------0---------0---------|
B|----0---------0----------0---------0-------|
G|------1---------1----------1---------1-----|
D|-------------------------------------------|
A|-------------------------------------------|
E|-------------------------------------------|

After verse 1
Guitar 2

e|---0---0---0~----|
B|-----0-----0~----|
G|-----------1~----|
D|-----------------|
A|-----------------|
E|-----------------|

Guitar 1
e|---------------------------------------------------------|
B|---------------------------------------------------------|
G|--99999999999999999999-----------------------------------|
D|--99999999999999999999---like a train chugging-----------|
A|--77777777777777777777-----------------------------------|
E|---------------------------------------------------------|

Verse 2
One strum of E5 during verse 2 on guitar 1
Guitar 2 during verse 2
e|-----------------------------------|
B|-----------------------------------|
G|-----------------------------------|
D|---6v-----6b7r6-----6\4----4v------|
A|-----------------------------------|
E|-----------------------------------|

Then chorus twice at 1:31

Bridge at 2:15 (guitar 1)
e|-------------------------------------------------------------|
B|---------------------------------------9-9/10\9----9\7--7----|
G|----9----9-9-9-9-9\7-7----7-7-7-7/9----8—8/9\8-----8\6--6----|
D|----9----9-9-9-9-9\7-7----7-7-7-7/9--------------------------|
A|----7----7-7-7-7-7\5-5----5-5-5-5/7--------------------------|
E|-------------------------------------------------------------|

e|-------------------------------------------|
B|-------------------------------------------|
G|----9----9-9-9-9-9\7-7----7-7-7-7/9--------| twice
D|----9----9-9-9-9-9\7-7----7 7 7-7/9--------|
A|----7----7-7-7-7-7\5-5----5-5-5-5/7--------|
E|-------------------------------------------|

e|-------|
B|-------|
G|--9~---|
D|--9~---|
A|--7~---|
E|-------|

Then solo
Solo (guitar 2)

e|--------------------------------------------------------------------------------|
B|--------12v----------------10v------------5v------------------10v---------12v---|
G|---9/13—13v----9/11\9/11\9-—9v----7-7-7\4—4v---4/11---11\9/11—11v---11/13—13v---|
D|--------------------------------------------------------------------------------|
A|--------------------------------------------------------------------------------|
E|--------------------------------------------------------------------------------|

Guitar 2 before verse 3

e|--0-----------0-------------0---3~-------|
B|----3-----------3-------------3----------|
G|------0~-----------0~--------------------|
D|-----------------------------------------|
A|-----------------------------------------|
E|-----------------------------------------|


Verse 3:  E5 and D5 clean on guitar 1

Chorus at 3:38 twice

Then guitar 1 is only occasional with E5 and D5...it’s mostly only guitar 2 on solos till the end


Outro (guitar 2)

e|----------------------------------------------------------------------------------|-----------|
B|---------12-----12---------------10------------------------------------repeat this|-----------|
G|---11/13—13v----13b14r13—13\11---11---7b9r7---7---9v-------------------bar once---|- 7/9\7--9v|
D|--------------------------------------------9---9-9v----9/11—11/13vvv-------------|-------7-7v|
A|----------------------------------------------------------------------------------|-----------|
E|----------------------------------------------------------------------------------|-----------|

                             Bend to 9 and play 9                 release to 7 and play 7
e|----------------------------------------------------------------------------|
B|----------------------------------------------------------------------------|
G|-------------7b9-9-9-9-9-9-9-9-9-9-9-9-9r7-7-7-7-7-7-7-7-7-7-7--------------|
D|--2-4-6-6v------------------------------------------------------------------|
A|----------------------------------------------------------------------------|
E|----------------------------------------------------------------------------|


e|----------------------------------------------------|
B|--9v-----9----------7-----------------9v-*7*9-------|
G|--8v--------9---------7-----9vvvvvvv----------------|
D|------9-------9---------9---------------------------|
A|----------------------------------------------------|
E|----------------------------------------------------|

e|----------------------12---------------------12---------------------|
B|--9--10-10/12v------9----10-9-10—12v-------9----10-9v----9+vvvv-----|
G|--------------------------------------------------------------------|
D|--------------------------------------------------------------------|
A|--------------------------------------------------------------------|
E|--------------------------------------------------------------------|

e|--------------------------------------------|
B|--12v--\4---11--7-9v---5/7--7----9+v--------|
G|--------------------------------------------|
D|--------------------------------------------|
A|--------------------------------------------|
E|--------------------------------------------|

e|--------------------------------------10-10b12r10+v----|
B|--9---9-10-12--9-10/12----12+vvvvv---------------------|
G|-------------------------------------------------------|
D|-------------------------------------------------------|
A|-------------------------------------------------------|
E|-------------------------------------------------------|

e|--------------------------------------------------------------------------------------|
B|--12-10-12-10-12-10-12-10-12-10-----12vvv---12b14-------------------------------------|
G|--------------------------------------------------11b13r11b13r11b13----11b13r11—9v----|
D|--------------------------------------------------------------------------------------|
A|--------------------------------------------------------------------------------------|
E|--------------------------------------------------------------------------------------|

e|-----------------------------------12+vvvvvvv------------|
B|---------------------------------------------------------|
G|----9\7-7vvv----7p6—7p6-7p6—7/9vv------------------------|
D|---------------------------------------------------------|
A|---------------------------------------------------------|
E|---------------------------------------------------------|

e|---------------------------|
B|---------------------------|
G|---7/9-9\7---7/9vvvvv------| fades away…………….
D|-----------9---------------|
A|---------------------------|
E|---------------------------|

Tap to rate this tab
# A B C D E F G H I J K L M N O P Q R S T U V W X Y Z