Song name
# A B C D E F G H I J K L M N O P Q R S T U V W X Y Z

Def Leppard - Rock Brigade tab

-----------------------------------------------------------------------------
1.                           Rock Brigade- Def Leppard
2.                          On Through the Night - 1979
3.         Words and Music by Joe Elliot, Steve Clark and Rick Savage
-----------------------------------------------------------------------------
Tabbed by: Duane Baldwin
Email: duaneandjulie@gmail.com

Tuning: Standard

Guitar I (Over driven)

Intro

       L.R.         L.R.-------------|    L.R.
e|----------------------------|---------------|----------------------------|
B|--3---3------------3---3-3--|--3-3---3------|----------------------------|
G|--2---2------------2---0h2--|--0h2---2---2--|------3---3----------5---5--|
D|--0---0--------0---0---0-0--|--0-0---0---2--|------3---3----------5---5--|
A|----------3b---0------------|----0---0---0--|--0---1---1---0------3---3--|
E|----------------------------|---------------|-----------------1----------|

                           L.R.          L.R.----------------|   L.R.       
e|------------------------|-------------------------|-----------------|
B|--------------3---3-3---|--3------------3---3-3---|---3---3-3-------|
G|--------------2---0h2---|--2------------2---0h2---|---2---0h2---2---|
D|--------------0---0-0---|--0--------0---0---0-0---|---0---0-0---2---|
A|------------------------|------3b---0-------------|-------------0---|
E|--0---1---2-------------|-------------------------|-----------------|

e|----------------------------|------------------------|
B|----------------------------|--------------3---3-3---|
G|------3---3----------5---5--|--------------2---0h2---|
D|------3---3----------5---5--|--------------0---0-0---|
A|--0---1---1---0------3---3--|------------------------|
E|-----------------1----------|--0---1---2-------------|

1st Verse

   L.R.         L.R.-------------|    L.R.
e|------------------------|---------------|----------------------------|
B|--3------------3---3-3--|--3-3---3------|----------------------------|
G|--2------------2---0h2--|--0h2---2---2--|------3---3----------5---5--|
D|--0--------0---0---0-0--|--0-0---0---2--|------3---3----------5---5--|
A|------3b---0------------|----0---0---0--|--0---1---1---0------3---3--|
E|------------------------|---------------|-----------------1----------|

                           L.R.          L.R.----------------|   L.R.       
e|------------------------|-------------------------|-----------------|
B|--------------3---3-3---|--3------------3---3-3---|---3---3-3-------|
G|--------------2---0h2---|--2------------2---0h2---|---2---0h2---2---|
D|--------------0---0-0---|--0--------0---0---0-0---|---0---0-0---2---|
A|------------------------|------3b---0-------------|-------------0---|
E|--0---1---2-------------|-------------------------|-----------------|

e|----------------------------|------------------------|
B|----------------------------|--------------3---3-3---|
G|------3---3----------5---5--|--------------2---0h2---|
D|------3---3----------5---5--|--------------0---0-0---|
A|--0---1---1---0------3---3--|------------------------|
E|-----------------1----------|--0---1---2-------------|


   L.R.         L.R.-------------|    L.R.
e|------------------------|---------------|----------------------------|
B|--3------------3---3-3--|--3-3---3------|----------------------------|
G|--2------------2---0h2--|--0h2---2---2--|------3---3----------5---5--|
D|--0--------0---0---0-0--|--0-0---0---2--|------3---3----------5---5--|
A|------3b---0------------|----0---0---0--|--0---1---1---0------3---3--|
E|------------------------|---------------|-----------------1----------|

e|------------------|
B|--------------3---|
G|--------------2---|
D|--------------0---|
A|------------------|
E|--0---1---2-------|

1st Chorus
e|----------------------|-------------------|-------------|------------------|
B|----------------------|-------------------|-------------|------------------|
G|-----------------10---|--7---7---10\9\7---|--5---5--10--|--7---7---10\9\7--|
D|---------5---5---10---|--7---7---10\9\7---|--5---5--10--|--7---7---10\9\7--|
A|--5--5---5---5---8----|--5---5---8\7\5----|--3---3---8--|--5---5---8\7\5---|
E|--0--0---3---3--------|-------------------|-------------|------------------|

e|----------------|-------------------|--------------|------------------|
B|----------------|-------------------|--------------|------------------|
G|-----------10---|--7---7---10\9\7---|--5---5---10--|--7---7---10\9\7--|
D|---5---5---10---|--7---7---10\9\7---|--5---5---10--|--7---7---10\9\7--|
A|---5---5---8----|--5---5---8\7\5----|--3---3---8---|--5---5---8\7\5---|
E|---3---3--------|-------------------|--------------|------------------|

e|---------------------|-----------------------|-----------------------|
B|---------------------|-----------------------|-----------------------|
G|------------------2--|--3--3--3--3--3--3--3--|--3--3--3--3--3--3--5--|
D|--5---5---5---5---2--|--3--3--3--3--3--3--3--|--3--3--3--3--3--3--5--|
A|--5---5---5---5---0--|--1--1--1--1--1--1--1--|--1--1--1--1--1--1--3--|
E|--3---3---3---3------|-----------------------|-----------------------|

Intro Reprise

       L.R.         L.R.-------------|    L.R.
e|----------------------------|---------------|----------------------------|
B|--3---3------------3---3-3--|--3-3---3------|----------------------------|
G|--2---2------------2---0h2--|--0h2---2---2--|------3---3----------5---5--|
D|--0---0--------0---0---0-0--|--0-0---0---2--|------3---3----------5---5--|
A|----------3b---0------------|----0---0---0--|--0---1---1---0------3---3--|
E|----------------------------|---------------|-----------------1----------|


                           L.R.          L.R.----------------|   L.R.       
e|------------------------|-------------------------|-----------------|
B|--------------3---3-3---|--3------------3---3-3---|---3---3-3-------|
G|--------------2---0h2---|--2------------2---0h2---|---2---0h2---2---|
D|--------------0---0-0---|--0--------0---0---0-0---|---0---0-0---2---|
A|------------------------|------3b---0-------------|-------------0---|
E|--0---1---2-------------|-------------------------|-----------------|

e|----------------------------|------------------------|
B|----------------------------|--------------3---3-3---|
G|------3---3----------5---5--|--------------2---0h2---|
D|------3---3----------5---5--|--------------0---0-0---|
A|--0---1---1---0------3---3--|------------------------|
E|-----------------1----------|--0---1---2-------------|

2nd Verse

   L.R.         L.R.-------------|    L.R.
e|------------------------|---------------|----------------------------|
B|--3------------3---3-3--|--3-3---3------|----------------------------|
G|--2------------2---0h2--|--0h2---2---2--|------3---3----------5---5--|
D|--0--------0---0---0-0--|--0-0---0---2--|------3---3----------5---5--|
A|------3b---0------------|----0---0---0--|--0---1---1---0------3---3--|
E|------------------------|---------------|-----------------1----------|

                           L.R.          L.R.----------------|   L.R.       
e|------------------------|-------------------------|-----------------|
B|--------------3---3-3---|--3------------3---3-3---|---3---3-3-------|
G|--------------2---0h2---|--2------------2---0h2---|---2---0h2---2---|
D|--------------0---0-0---|--0--------0---0---0-0---|---0---0-0---2---|
A|------------------------|------3b---0-------------|-------------0---|
E|--0---1---2-------------|-------------------------|-----------------|

e|----------------------------|------------------------|
B|----------------------------|--------------3---3-3---|
G|------3---3----------5---5--|--------------2---0h2---|
D|------3---3----------5---5--|--------------0---0-0---|
A|--0---1---1---0------3---3--|------------------------|
E|-----------------1----------|--0---1---2-------------|

   L.R.         L.R.-------------|    L.R.
e|------------------------|---------------|----------------------------|
B|--3------------3---3-3--|--3-3---3------|----------------------------|
G|--2------------2---0h2--|--0h2---2---2--|------3---3----------5---5--|
D|--0--------0---0---0-0--|--0-0---0---2--|------3---3----------5---5--|
A|------3b---0------------|----0---0---0--|--0---1---1---0------3---3--|
E|------------------------|---------------|-----------------1----------|

e|---------------------|
B|--------------3---3--|
G|--------------2---2--|
D|--------------0---0--|
A|---------------------|
E|--0---1---2----------|

2nd Chorus
e|----------------------|-------------------|-------------|------------------|
B|----------------------|-------------------|-------------|------------------|
G|-----------------10---|--7---7---10\9\7---|--5---5--10--|--7---7---10\9\7--|
D|---------5---5---10---|--7---7---10\9\7---|--5---5--10--|--7---7---10\9\7--|
A|--5--5---5---5---8----|--5---5---8\7\5----|--3---3---8--|--5---5---8\7\5---|
E|--0--0---3---3--------|-------------------|-------------|------------------|

e|----------------|-------------------|---------------------|
B|----------------|-------------------|---------------------|
G|-----------10---|--7---7---10\9\7---|------------------2--|
D|---5---5---10---|--7---7---10\9\7---|--5---5---5---5---2--|
A|---5---5---8----|--5---5---8\7\5----|--5---5---5---5---0--|
E|---3---3--------|-------------------|--3---3---3---3------|

Bridge
e|-----------------------|--------------------------|------------------------|
B|-----------------------|--------------------------|------------------------|
G|-----------------------|--3-----------------------|------------------------|
D|--3--3--3--3--3--3--3--|--3-----------------------|-----5--5--5--5--5--5--5|
A|--1--1--1--1--0--0--0--|--0-----------------------|-----3--3--3--3--2--2--2|
E|-----------------------|-----3--3--3--3--1--1--1--|--1---------------------|

e|--------------------------|--------------------------|-----------------|
B|--------------------------|--------------------------|-----------------|
G|--------------------------|--------------------------|---------5-------|
D|--5--5--5--5--5-----------|-----7--7--7--7--7--7--7--|--7--7---5---5---|
A|--2--0--0--0--0-----------|-----5--5--5--5--5--5--5--|--5--5---3---5---|
E|-----------------3--3--3--|--3-----------------------|-------------3---|

Solo
e|---------------------------------|-------------------------|
B|---------------------------------|-------------------------|
G|---------------------------------|-------------------------|
D|---------------------------------|------------------5------|
A|--3---5---5---3---4---5---5---3--|--4---5---5---5---3---5--|
E|---------------------------------|----------------------3--|

e|---------------------------------|-------------------------|
B|---------------------------------|-------------------------|
G|---------------------------------|-------------------------|
D|--5------------------------------|------------------5------|
A|--3---5---5---3---4---5---5---3--|--4---5---5---5---3---5--|
E|---------------------------------|----------------------3--|

e|---------------------------------|-------------------------|
B|---------------------------------|-------------------------|
G|---------------------------------|-------------------------|
D|--5------------------------------|------------------5------|
A|--3---5---5---3---4---5---5---3--|--4---5---5---5---3---5--|
E|---------------------------------|----------------------3--|

e|---------------------------------|-------------------------|
B|---------------------------------|-------------------------|
G|---------------------------------|-------------------------|
D|--5------------------------------|------------------5------|
A|--3---5---5---3---4---5---5---3--|--4---5---5---5---3---5--|
E|---------------------------------|----------------------3--|

e|---------------------------------|-------------------------|
B|---------------------------------|-------------------------|
G|---------------------------------|-------------------------|
D|---------------------------------|----------------------5--|
A|---------------------------------|------------------5---3--|
E|--3---5---5---3---4---5---5---3--|--4---5---5---5---3------|

e|---------------------------------|-------------------------|
B|---------------------------------|-------------------------|
G|---------------------------------|-------------------------|
D|---------------------------------|------------------5------|
A|---------------------------------|------------------3---5--|
E|--3---5---5---3---4---5---5---3--|--4---5---5---5-------3--|

e|---------------------------------|-------------------------|
B|---------------------------------|-------------------------|
G|---------------------------------|-------------------------|
D|---------------------------------|----------------------5--|
A|---------------------------------|------------------5---3--|
E|--3---5---5---3---4---5---5---3--|--4---5---5---5---3------|

e|---------------------------------|-------------------------|
B|---------------------------------|-------------------------|
G|---------------------------------|-------------------------|
D|---------------------------------|------------------5------|
A|---------------------------------|------------------3---5--|
E|--3---5---5---3---4---5---5---3--|--4---5---5---5-------3--|

e|-----------|-----------|
B|-----------|-----------|
G|----5------|-----------|
D|----5------|-----2-----|
A|----3------|-----2-----|
E|-----------|-----0-----|

Intro Reprise
       L.R.         L.R.-------------|    L.R.
e|----------------------------|---------------|----------------------------|
B|--3---3------------3---3-3--|--3-3---3------|----------------------------|
G|--2---2------------2---0h2--|--0h2---2---2--|------3---3----------5---5--|
D|--0---0--------0---0---0-0--|--0-0---0---2--|------3---3----------5---5--|
A|----------3b---0------------|----0---0---0--|--0---1---1---0------3---3--|
E|----------------------------|---------------|-----------------1----------|

e|------------------------|
B|--------------3---3-3---|
G|--------------2---0h2---|
D|--------------0---0-0---|
A|------------------------|
E|--0---1---2-------------|

3rd Verse

   L.R          L.R.-----------|     L.R. 
e|------------------------|---------------|----------------------------|
B|--3------------3---3-3--|--3-3---3------|----------------------------|
G|--2------------2---0h2--|--0h2---2---2--|------3---3----------5---5--|
D|--0--------0---0---0-0--|--0-0---0---2--|------3---3----------5---5--|
A|------3b---0------------|----0---0---0--|--0---1---1---0------3---3--|
E|------------------------|---------------|-----------------1----------|

                           L.R.          L.R.----------------|   L.R.       
e|------------------------|-------------------------|-----------------|
B|--------------3---3-3---|--3------------3---3-3---|---3---3-3-------|
G|--------------2---0h2---|--2------------2---0h2---|---2---0h2---2---|
D|--------------0---0-0---|--0--------0---0---0-0---|---0---0-0---2---|
A|------------------------|------3b---0-------------|-------------0---|
E|--0---1---2-------------|-------------------------|-----------------|

e|----------------------------|------------------------|
B|----------------------------|--------------3---3-3---|
G|------3---3----------5---5--|--------------2---0h2---|
D|------3---3----------5---5--|--------------0---0-0---|
A|--0---1---1---0------3---3--|------------------------|
E|-----------------1----------|--0---1---2-------------|

   L.R.         L.R.-------------|    L.R.
e|------------------------|---------------|----------------------------|
B|--3------------3---3-3--|--3-3---3------|----------------------------|
G|--2------------2---0h2--|--0h2---2---2--|------3---3----------5---5--|
D|--0--------0---0---0-0--|--0-0---0---2--|------3---3----------5---5--|
A|------3b---0------------|----0---0---0--|--0---1---1---0------3---3--|
E|------------------------|---------------|-----------------1----------|

e|---------------------|
B|--------------3---3--|
G|--------------2---2--|
D|--------------0---0--|
A|---------------------|
E|--0---1---2----------|

3rd Chorus
e|----------------------|-------------------|-------------|------------------|
B|----------------------|-------------------|-------------|------------------|
G|-----------------10---|--7---7---10\9\7---|--5---5--10--|--7---7---10\9\7--|
D|---------5---5---10---|--7---7---10\9\7---|--5---5--10--|--7---7---10\9\7--|
A|--5--5---5---5---8----|--5---5---8\7\5----|--3---3---8--|--5---5---8\7\5---|
E|--0--0---3---3--------|-------------------|-------------|------------------|

e|----------------|-------------------|-------------|------------------|
B|----------------|-------------------|-------------|------------------|
G|-----------10---|--7---7---10\9\7---|--5---5--10--|--7---7---10\9\7--|
D|---5---5---10---|--7---7---10\9\7---|--5---5--10--|--7---7---10\9\7--|
A|---5---5---8----|--5---5---8\7\5----|--3---3---8--|--5---5---8\7\5---|
E|---3---3--------|-------------------|-------------|------------------|

e|----------------|-------------------|-------------|------------------|
B|----------------|-------------------|-------------|------------------|
G|-----------10---|--7---7---10\9\7---|--5---5--10--|--7---7---10\9\7--|
D|---5---5---10---|--7---7---10\9\7---|--5---5--10--|--7---7---10\9\7--|
A|---5---5---8----|--5---5---8\7\5----|--3---3---8--|--5---5---8\7\5---|
E|---3---3--------|-------------------|-------------|------------------|

e|----------------|-------------------|---------------------|
B|----------------|-------------------|---------------------|
G|-----------10---|--7---7---10\9\7---|------------------2--|
D|---5---5---10---|--7---7---10\9\7---|--5---5---5---5---2--|
A|---5---5---8----|--5---5---8\7\5----|--5---5---5---5---0--|
E|---3---3--------|-------------------|--3---3---3---3------|

Bridge/Outro

e|-----------------------|--------------------------|------------------------|
B|-----------------------|--------------------------|------------------------|
G|-----------------------|--3-----------------------|------------------------|
D|--3--3--3--3--3--3--3--|--3-----------------------|-----5--5--5--5--5--5--5|
A|--1--1--1--1--0--0--0--|--0-----------------------|-----3--3--3--3--2--2--2|
E|-----------------------|-----3--3--3--3--1--1--1--|--1---------------------|

e|--------------------------|--------------------------|-----------------|
B|--------------------------|--------------------------|-----------------|
G|--------------------------|--------------------------|-----------------|
D|--5--5--5--5--5-----------|-----7--7--7--7--7--7--7--|--7--7---5-------|
A|--2--0--0--0--0-----------|-----5--5--5--5--5--5--5--|--5--5---3---5---|
E|-----------------3--3--3--|--3-----------------------|-------------3---|

e|-----------------|---------------|
B|-----------------|---------------|
G|--------7--------|-------7-------|
D|--------7--------|-------7-------|
A|--3-----5--------|-------5-------|
E|--1--------------|---------------|

Guitar II ( Overdriven tone)

Intro
e|-----------------|-----------------|--------------|---------------------|
B|-----------------|-----------------|--------------|----------3----3-3---|
G|-----------------|-----------------|---3------5---|----------2----0h2---|
D|-----------------|-----------------|---3------5---|----------0----0-0---|
A|-----------------|-----------------|---1------3---|---------------------|
E|-----------------|-----------------|--------------|--12\0---------------|

   L.R.
e|---------------------3---|---3---3---3-------|-----------------------------|
B|--3------------3---3-3---|---3---3---3-------|-----------------------------|
G|--2------------2---0h2---|---2---2---2---2---|------3---3-----------5---5--|
D|--0--------0---0---0-0---|---0---0---0---2---|------3---3-----------5---5--|
A|------3b---0-------------|---------------0---|--0---1---1---0-------3---3--|
E|-------------------------|-------------------|------------------1----------|

e|------------------------|
B|--------------3---3-3---|
G|--------------2---0h2---|
D|--------------0---0-0---|
A|------------------------|
E|--0---1---2-------------|

1st Verse
   L.R.
e|---------------------3---|---3---3---3-------|-----------------------------|
B|--3------------3---3-3---|---3---3---3-------|-----------------------------|
G|--2------------2---0h2---|---2---2---2---2---|------3---3-----------5---5--|
D|--0--------0---0---0-0---|---0---0---0---2---|------3---3-----------5---5--|
A|------3b---0-------------|---------------0---|--0---1---1---0-------3---3--|
E|-------------------------|-------------------|------------------1----------|

                           L.R.          L.R.----------------|     L.R.
e|------------------------|---------------------3---|---3---3---3-------|
B|--------------3---3-3---|--3------------3---3-3---|---3---3---3-------|
G|--------------2---0h2---|--2------------2---0h2---|---2---2---2---2---|
D|--------------0---0-0---|--0--------0---0---0-0---|---0---0---0---2---|
A|------------------------|------3b---0-------------|---------------0---|
E|--0---1---2-------------|-------------------------|-------------------|

e|-----------------------------|---------------------|
B|-----------------------------|--------------3------|
G|------3---3-----------5---5--|--------------2------|
D|------3---3-----------5---5--|--------------0------|
A|--0---1---1---0-------3---3--|---------------------|
E|------------------1----------|--0---1---2----------|

1st Chorus
e|----------------------|-------------------|-------------|------------------|
B|----------------------|-------------------|-------------|------------------|
G|-----------------10---|--7---7---10\9\7---|--5---5--10--|--7---7---10\9\7--|
D|---------5---5---10---|--7---7---10\9\7---|--5---5--10--|--7---7---10\9\7--|
A|--5--5---5---5---8----|--5---5---8\7\5----|--3---3---8--|--5---5---8\7\5---|
E|--0--0---3---3--------|-------------------|-------------|------------------|

e|----------------|-------------------|--------------|------------------|
B|----------------|-------------------|--------------|------------------|
G|-----------10---|--7---7---10\9\7---|--5---5---10--|--7---7---10\9\7--|
D|---5---5---10---|--7---7---10\9\7---|--5---5---10--|--7---7---10\9\7--|
A|---5---5---8----|--5---5---8\7\5----|--3---3---8---|--5---5---8\7\5---|
E|---3---3--------|-------------------|--------------|------------------|

e|---------------------|-----------------------|-----------------------|
B|---------------------|-----------------------|-----------------------|
G|------------------2--|--3--3--3--3--3--3--3--|--3--3--3--3--3--3--5--|
D|--5---5---5---5---2--|--3--3--3--3--3--3--3--|--3--3--3--3--3--3--5--|
A|--5---5---5---5---0--|--1--1--1--1--1--1--1--|--1--1--1--1--1--1--3--|
E|--3---3---3---3------|-----------------------|-----------------------|

Intro Reprise

                                    L.R.
e|----------------------------|--3---3---3------|----------------------------|
B|--3---3------------3---3-3--|--3---3---3------|----------------------------|
G|--2---2------------2---0h2--|--2---2---2---2--|------3---3----------5---5--|
D|--0---0--------0---0---0-0--|--0---0---0---2--|------3---3----------5---5--|
A|----------3b---0------------|--------------0--|--0---1---1---0------3---3--|
E|----------------------------|-----------------|-----------------1----------|

               L.R.                      L.R.----------------|   L.R.        
e|------------------------|---------------------3---|---3---3---3-------|
B|--------------3---3-3---|--3------------3---3-3---|---3---3---3-------|
G|--------------2---0h2---|--2------------2---0h2---|---2---2---2---2---|
D|--------------0---0-0---|--0--------0---0---0-0---|---0---0---0---2---|
A|------------------------|------3b---0-------------|---------------0---|
E|--0---1---2-------------|-------------------------|-------------------|

e|-----------------------------|------------------------|
B|-----------------------------|--------------3---3-3---|
G|------3---3-----------5---5--|--------------2---0h2---|
D|------3---3-----------5---5--|--------------0---0-0---|
A|--0---1---1---0-------3---3--|------------------------|
E|------------------1----------|--0---1---2-------------|

2nd Verse
   L.R.
e|---------------------3---|-----------------|-----------------------------|
B|--3------------3---3-3---|---5---5br---3---|-----------------------------|
G|--2------------2---0h2---|-----------------|------3---3-----------5---5--|
D|--0--------0---0---0-0---|-----------------|------3---3-----------5---5--|
A|------3b---0-------------|-----------------|--0---1---1---0-------3---3--|
E|-------------------------|-----------------|------------------1----------|

                           L.R.
e|------------------------|---------------------3---|-----------------|
B|--------------3---3-3---|--3------------3---3-3---|---5---5br---6---|
G|--------------2---0h2---|--2------------2---0h2---|-----------------|
D|--------------0---0-0---|--0--------0---0---0-0---|-----------------|
A|------------------------|------3b---0-------------|-----------------|
E|--0---1---2-------------|-------------------------|-----------------|

e|-----------------------------|---------------------|
B|-----------------------------|--------------3------|
G|------3---3-----------5---5--|--------------2------|
D|------3---3-----------5---5--|--------------0------|
A|--0---1---1---0-------3---3--|---------------------|
E|------------------1----------|--0---1---2----------|

2nd Chorus
e|----------------------|-------------------|-------------|------------------|
B|----------------------|-------------------|-------------|------------------|
G|-----------------10---|--7---7---10\9\7---|--5---5--10--|--7---7---10\9\7--|
D|---------5---5---10---|--7---7---10\9\7---|--5---5--10--|--7---7---10\9\7--|
A|--5--5---5---5---8----|--5---5---8\7\5----|--3---3---8--|--5---5---8\7\5---|
E|--0--0---3---3--------|-------------------|-------------|------------------|

e|----------------|-------------------|---------------------|
B|----------------|-------------------|---------------------|
G|-----------10---|--7---7---10\9\7---|------------------2--|
D|---5---5---10---|--7---7---10\9\7---|--5---5---5---5---2--|
A|---5---5---8----|--5---5---8\7\5----|--5---5---5---5---0--|
E|---3---3--------|-------------------|--3---3---3---3------|

Bridge
e|-----------|-------10----10----|-----------|-------10----10----|
B|-----------|-------13b---13b---|-----------|-------13b---13b---|
G|-----------|-------------------|-----------|-------------------|
D|---3---3---|-------------------|---5---5---|--5----------------|
A|---1---0---|-------------------|---3---2---|--0----------------|
E|-----------|--3----------------|-----------|-------------------|

e|-----------------------------|------------------|
B|-----------------------------|------------------|
G|-----------------------------|------------------|
D|--7---7---7---7---7---7---7--|--7---7---3---0---|
A|--5---5---5---5---5---5---5--|--5---5-----------|
E|-----------------------------|------------------|

Main Solo
                                       *Tap and hold
e|----------------|-----------------|----------------|--------------|
B|----------------|-----------------|----------------|--------------|
G|--9br--7--9--7--|--9----------9b--|--*17----9pbr---|----7h9p7-----|
D|----------------|-----7\5--0------|----------------|--------------|
A|----------------|-----------------|----------------|--------------|
E|----------------|-----------------|----------------|--------------|

e|---------7----------------------------|-------------------------------|
B|------------10p7-----7----------------|-------------------------------|
G|--7--9b-----------9-----9p7-----7--9--|--7--10--11--12--10--12br--10--|
D|-----------------------------9--------|-------------------------------|
A|--------------------------------------|-------------------------------|
E|--------------------------------------|-------------------------------|

e|---------------10----------------------------|-----------------------------|
B|-------------------13p10------10-------------|-----------------------------|
G|------10--12b-------------12------12p10------|--10--12---------------------|
D|--12-------------------------------------12--|----------10-----------------|
A|---------------------------------------------|--------------12--10--12\----|
E|---------------------------------------------|-----------------------------|

e|-----------------------------------------------------------------|
B|--14--15--17--15--14------15--14----------14---------------------|
G|----------------------16----------16--14------16--14--13--16--14-|
D|-----------------------------------------------------------------|
A|-----------------------------------------------------------------|
E|-----------------------------------------------------------------|

e|----------------------------|----------------------------------------|
B|----------------------------|----------14--15--14h15p14------14------|
G|--13--14--13h14p13------16--|--13--14--------------------16------14--|
D|--------------------14------|----------------------------------------|
A|----------------------------|----------------------------------------|
E|----------------------------|----------------------------------------|

e|--------------------------------|--------------------------------|
B|--17--15--14h15p15--------------|--------------------------------|
G|--------------------16--14------|------17------17--19br--17------|
D|----------------------------16--|--19------19----------------19--|
A|--------------------------------|--------------------------------|
E|--------------------------------|--------------------------------|

e|--------------x--20---------------------|----------------------------------|
B|-----------x----------------------------|-----------17--20p17--20p17----17-|
G|--17--19b------------19pbr--17--19brbr--|--17--19b-------------------19----|
D|----------------------------------------|----------------------------------|
A|----------------------------------------|----------------------------------|
E|----------------------------------------|----------------------------------|

e|-----------------------------------|-----------------|------------|
B|-----------------------------------|-----------------|------------|
G|--19--17--19p17------17qb----------|-----------------|------------|
D|-----------------19--------19\-----|-----------------|-----2------|
A|------------------------------\----|-----------------|-----2------|
E|-------------------------------\---|-----------------|-----0------|
Intro Reprise

                                    L.R.
e|----------------------------|--3---3---3------|----------------------------|
B|--3---3------------3---3-3--|--3---3---3------|----------------------------|
G|--2---2------------2---0h2--|--2---2---2---2--|------3---3----------5---5--|
D|--0---0--------0---0---0-0--|--0---0---0---2--|------3---3----------5---5--|
A|----------3b---0------------|--------------0--|--0---1---1---0------3---3--|
E|----------------------------|-----------------|-----------------1----------|

e|------------------------|
B|--------------3---3-3---|
G|--------------2---0h2---|
D|--------------0---0-0---|
A|------------------------|
E|--0---1---2-------------|

3rd Verse

   L.R.
e|---------------------3---|-----------------|-----------------------------|
B|--3------------3---3-3---|---5---5br---3---|-----------------------------|
G|--2------------2---0h2---|-----------------|------3---3-----------5---5--|
D|--0--------0---0---0-0---|-----------------|------3---3-----------5---5--|
A|------3b---0-------------|-----------------|--0---1---1---0-------3---3--|
E|-------------------------|-----------------|------------------1----------|

                           L.R.
e|------------------------|---------------------3---|-----------------|
B|--------------3---3-3---|--3------------3---3-3---|---5---5br---6---|
G|--------------2---0h2---|--2------------2---0h2---|-----------------|
D|--------------0---0-0---|--0--------0---0---0-0---|-----------------|
A|------------------------|------3b---0-------------|-----------------|
E|--0---1---2-------------|-------------------------|-----------------|

e|-----------------------------|----------------------|
B|-----------------------------|--------------3---3---|
G|------3---3-----------5---5--|--------------2---2---|
D|------3---3-----------5---5--|--------------0---0---|
A|--0---1---1---0-------3---3--|----------------------|
E|------------------1----------|--0---1---2-----------|

3rd Chorus
e|----------------------|-------------------|-------------|------------------|
B|----------------------|-------------------|-------------|------------------|
G|-----------------10---|--7---7---10\9\7---|--5---5--10--|--7---7---10\9\7--|
D|---------5---5---10---|--7---7---10\9\7---|--5---5--10--|--7---7---10\9\7--|
A|--5--5---5---5---8----|--5---5---8\7\5----|--3---3---8--|--5---5---8\7\5---|
E|--0--0---3---3--------|-------------------|-------------|------------------|

e|----------------|-------------------|-------------|------------------|
B|----------------|-------------------|-------------|------------------|
G|-----------10---|--7---7---10\9\7---|--5---5--10--|--7---7---10\9\7--|
D|---5---5---10---|--7---7---10\9\7---|--5---5--10--|--7---7---10\9\7--|
A|---5---5---8----|--5---5---8\7\5----|--3---3---8--|--5---5---8\7\5---|
E|---3---3--------|-------------------|-------------|------------------|

e|----------------|-------------------|-------------|------------------|
B|----------------|-------------------|-------------|------------------|
G|-----------10---|--7---7---10\9\7---|--5---5--10--|--7---7---10\9\7--|
D|---5---5---10---|--7---7---10\9\7---|--5---5--10--|--7---7---10\9\7--|
A|---5---5---8----|--5---5---8\7\5----|--3---3---8--|--5---5---8\7\5---|
E|---3---3--------|-------------------|-------------|------------------|

e|----------------|-------------------|---------------------|
B|----------------|-------------------|---------------------|
G|-----------10---|--7---7---10\9\7---|------------------2--|
D|---5---5---10---|--7---7---10\9\7---|--5---5---5---5---2--|
A|---5---5---8----|--5---5---8\7\5----|--5---5---5---5---0--|
E|---3---3--------|-------------------|--3---3---3---3------|

Bridge/Outro
e|-----------|-------10----10----|-----------|-------10----10----|
B|-----------|-------13b---13b---|-----------|-------13b---13b---|
G|-----------|-------------------|-----------|-------------------|
D|---3---3---|-------------------|---5---5---|--5----------------|
A|---1---0---|-------------------|---3---2---|--0----------------|
E|-----------|--3----------------|-----------|-------------------|

e|-----------------------------|--------------------|------------|-----------|
B|-----------------------------|--------------------|-------7----|-----7-----|
G|-----------------------------|--------------------|-------7----|-----7-----|
D|--7---7---7---7---7---7---7--|--7---7-----5-------|-------5----|-----5-----|
A|--5---5---5---5---5---5---5--|--5---5-----3---5---|--3---------|-----------|
E|-----------------------------|----------------3---|--1---------|-----------|
************************************

| /   slide up
| \   slide down
| h   hammer-on
| p   pull-off
| ~   vibrato
| +   harmonic
| x   Mute note
| b   Bend
| qb  Quater bend
| hb  Half bend
| pb  Pre-bend
| br  Bend release
| pbr Pre-bend release
| brb Bend release bend
| L.R. Let ring
|  T   Tapped note
************************************
Intro

D  C  A  D  G  A  Bb A  F  C  N.C. D

D  C  A  D  G  A  Bb A  F  C  N.C. D

1st Verse

                       C  A  D                      G     A
Ah Well in the middle of the night and the early morning light

        Bb   A      F    C   N.C.    D
You can hear them a million miles away

                   C   A    D                 G    A
They'll be bangin' on their drums bangin' on your door

Bb     A  F   C    N.C.            D
Waving their flags telling you the score

1st Chorus

G            F      D             F   E   D
  Watch out for the rock brigade (Rock Brigade)

C       F       D             F   E    D
Oh no, it's the rock brigade (Rock Brigade)

G             F   D            F    E   D
Look out for the rock brigade ( Rock Brigade)

G           A  Bb    C
Leading you away     away

Intro Reprise

D  C  A  D  G  A  Bb A  F  C  N.C. D

D  C  A  D  G  A  Bb A  F  C  N.C. D

2nd Verse

              C  A  D                G   A
when they hit your town you'd better get down

A   Bb   A  F  C  N.C.      D
I'm telling no lies to you mister

                    C    A  D                        G    A
Cause they live for rock n roll they'll try to steal your soul

      Bb    A  F   C    N.C.    D
Might even try to steal your sister


2nd Chorus

G            F      D             F   E   D
  Watch out for the rock brigade (Rock Brigade)

C      F       D             F   E    D
Oh no, it's the rock brigade (Rock Brigade)

G             F   D            F    E   D
Look out for the rock brigade ( Rock Brigade)

G
Leading you 

Bridge

A  Bb A  G  F 
away 

C  B  A  G
away

C  G
away

Solo

N.C.  C  G 

N.C.  C  G 

N.C.  C  G 

N.C.  C  G 

N.C.  G  C 

N.C.  C  G 

N.C.  G  C 

N.C.  C  G 

C   E

Intro reprise

D  C  A  D  G  A  Bb A  F  C  N.C. D

3rd Verse

                 C  A   D                     G     A 
So in the middle of the night or the early morning light

       Bb  A F   C      N.C.   D
If you hear them comin' your way

                  C     G    D                G      A
Well you'd better watch your step don't step out of line

      Bb   A  F  C     N.C.    D
Cause here they come one more time

3rd Chorus

G             F   D             F  E     D
Watch out for the rock brigade (Rock Brigade)

C               F     D       F   E   D
Oh no it's the rock brigade (Rock Brigade)

G             F    D           F   E   D
Look out for the rock brigade (Rock Brigade)

C                       F   D          F   E   D
You better watch for the rock brigade (Rock Brigade)

G                       F     D       F   E   D
I say watch out for the rock brigade (Rock Brigade)

C                       F     D      F   E   D
Keep your eyes on the rock brigade (Rock Brigade)

G                            F     D     F    E    D
Don't let your eyes off the rock brigade(Rock Brigade)

G                      
They'll be leading you 

Bridge/outro

A  Bb  A   G  F
away 

C  B  A  G
away 

D    C  G  F  D
away
Tap to rate this tab
# A B C D E F G H I J K L M N O P Q R S T U V W X Y Z