Song name
# A B C D E F G H I J K L M N O P Q R S T U V W X Y Z

Def Leppard - Billys Got A Gun tab

This tab is about 98% right.

                          Billy's got a gun solo

                           Def Leppard

SOLO:

e|----------------------------------------------------------10-12-13-15-15fb-15fb-15fb-15fb-15fbr-|
B|-------13-----------------------------------------10-12-13--------------------------------------|
G|10-12hb--12fbr 10h12p10-9--9h10p9----------9-10-12----------------------------------------------|
D|----------------------------------12\-10/12-----------------------------------------------------|
A|------------------------------------------------------------------------------------------------|
E|------------------------------------------------------------------------------------------------|

e|15----------------------------------------------17-17----17-17-------17-20--20fb-20fb-20fb--20-17|
B|------------------------------------------------------15-------15-15\----------------------------|
G|--14--14-17fbr-14-17fbr--14-17fbr--14-17-fbr--14-------------------------------------------------|
D|-------------------------------------------------------------------------------------------------|
A|-------------------------------------------------------------------------------------------------|
E|-------------------------------------------------------------------------------------------------|

e|-------------------------------------------------------------------------------------------------|
B|20 20fb------------------------------------------------------------------------------------------|
G|--------19\-10-12hb-12hb-12hb-12hb-12-12------4-----7--------------------4------7----------------|
D|----------------------------------------------5-----5--5-5-4--4-5-7------5------5--5-5-4--4-5-7--|
A|-------------------------------------------------------3-3-3--3-3-5----------------3-3-3--3-3-5--|
E|------------------------------------------0--0---0-0-----------------0--0---0-0------------------|

e|---------------------------------------------------------------------------|
B|--------------------------8------------------------------------------------|
G|5------5h7-7fbr-5-7-5hb-----7fb-5-7fb--7fb-7-5-------5--------0h2----------|
D|------------------------7------------------------------------0-------------|
A|-----------------------------------------------5-6-7--------3--------------|
E|---------------------------------------------------------------------------|

Please Rate and Comment
Tap to rate this tab
 
# A B C D E F G H I J K L M N O P Q R S T U V W X Y Z