Song name
# A B C D E F G H I J K L M N O P Q R S T U V W X Y Z

Def Leppard - Dont Shoot Shotgun tab

-----------------------------------------------------------------------------
			     Don't Shoot Shotgun - Def Leppard
-----------------------------------------------------------------------------
Tabbed by: Teamski
Email:Teamski1@hotmail.com

Tuning:Normal

An awesome song, easily learned by less gifted folks like myself!!  Enjoy!!

Run for cover 
(Run for cover) 
Don't shoot! - Shoot! 
She's so dangerous 


e|-------------------------------------------------------------------------|
B|------------4-------2-----------------------4---2------------------------|
G|------------4---1---2-----------------------4---2---1--------------------|
D|------------4---2---2-----------------------4---2---2--------------------|
A|------------2---2---------------------------2-------2--------------------|
E|-------------------------------------------------------------------------|

      (Shotgun!)  (Gun!) (Don't shoot shotgun!) 

      B  A  A  E   
e|--------------------------------------------------------------|
B|----4--2--2------4--2-----------4--2--2------4--2-------------|
G|----4--2--2--1---4--2--1--1-----4--2--2--1---4--2--1--1-------|
D|----4--2--2--2---4--2--2--2-----4--2--2--2---4--2--2--2-------|
A|----2--------2---2-----2--2-----2--------2---2-----2--2-------|
E|--------------------------------------------------------------|

Maybe I'm wrong, maybe I'm right, Fallin' head over heals at the speed of light 

e|--------------------------------------------------------------|
B|----4--2--2------4--2-----------4--2--2------4--2-------------|
G|----4--2--2--1---4--2--1--1-----4--2--2--1---4--2--1--1-------|
D|----4--2--2--2---4--2--2--2-----4--2--2--2---4--2--2--2-------|
A|----2--------2---2-----2--2-----2--------2---2-----2--2-------|
E|--------------------------------------------------------------|

Hey little miss heaven on earth, won't you walk this way

e|--------------------------------------------------------------|
B|----4--2--2------4--2-----------4--2--2------4--2-------------|
G|----4--2--2--1---4--2--1--1-----4--2--2--1---4--2--1--1-------|
D|----4--2--2--2---4--2--2--2-----4--2--2--2---4--2--2--2-------|
A|----2--------2---2-----2--2-----2--------2---2-----2--2-------|
E|--------------------------------------------------------------|

but I see a red alert Oh, my senses say keep away 


e|-------------------------------------------------------------|
B|---0--0--0--0----9-9-9-10-10-----0--0--0--0----9-9-9-10-10---|
G|---11-11-11-11---9-9-9-9--9------11-11-11-11---9-9-9-9--9----|
D|---11-11-11-11---9-9-9-9--9------11-11-11-11---9-9-9-9--9----|
A|---9--9--9--9----7-7-7-7--7------9--9--9---9---7-7-7-7--7----|
E|-------------------------------------------------------------|

So don't shoot!  Don't shoot shotgun 

e|----------------------------------------------------------------|
B|--4-4--2-4---4-4-----2--4-4--2-4---4--2-------------------------|
G|--4-4--2-4---4-4--1--2--4-4--2-4---4--2--1-1--------------------|
D|--4-4--2-4---4-4--2--2--4-4--2-4---4--2--2-2--------------------|
A|--2-2----2---2-2--2-----2-2----2---2-----2-2--------------------|
E|----------------------------------------------------------------|

Dream on nightmare Touch'n'go, Dove turned destroyer.... she's a slave of love 


e|--------------------------------------------------2---2---2----------|
B|--1-1--1-1--1-1-----2----2----2---1-1--1-1--1-1---3---3---3----------|
G|--2----2----2-------2----2----2---2----2----2-----2---2---2----------|
D|--3-2--3-2--3-2-----2----2----2---3-2--3-2--3-2----------------------|
A|----3----3----3---2----2----2-------3----3----3-----2---2---2--------|
E|------------------3----3----3-----------------------3---3---3--------|

Run for cover, she's so dangerous  Undercover, she's so shameless 


e|--------------0-------------------------0------------------------|
B|--4-4-4---------0---2-2-----4-4-4---------0---2-2----------------|
G|--4-4---4---1-------2---2---4-4---4---1-------2---2--------------|
D|--4-4-------2-------2-------4-4-------2-------2------------------|
A|--2-2-------2---------------2-2-------2--------------------------|
E|-----------------------------------------------------------------|

Don't shoot shotgun,You got me bitin' my lip 

e|--------------0-------------------------------------------------|
B|--4-4-4---------0---2-2-----4-4-4---------2--2--2-2----4--------|
G|--4-4---4---1-------2---2---4-4---4---1---2--2--2-2----4--------|
D|--4-4-------2-------2-------4-4-------2---2--2--2-2----4--------|
A|--2-2-------2---------------2-2-------2----------------2--------|
E|----------------------------------------------------------------|

Don't shoot shotgun! Ya shootin' straight from the hip So don't shoot shotgun 


Shoot me, baby! 
Ow! 


e|-----------------------------------------------------------|
B|--4-4---2-4---4-4-----2--4-4---2-4---4-4-----2-------------|
G|--4-4---2-4---4-4--1--2--4-4---2-4---4-4--1--2-------------|
D|--4-4---2-4---4-4--2--2--4-4---2-4---4-4--2--2-------------|
A|--2-2-----2---2-2--2-----2-2-----2---2-2--2----------------|
E|-----------------------------------------------------------|

Hit 'n' miss, flesh and blood She's sweet and indiscreet, she can't get enough 

e|-----------------------------------------------------------------|
B|--4-4--2-4---4-4-----2--4-4---2-4---4--2-------------------------|
G|--4-4--2-4---4-4--1--2--4-4---2-4---4--2--1-1--------------------|
D|--4-4--2-4---4-4--2--2--4-4---2-4---4--2--2-2--------------------|
A|--2-2----2---2-2--2-----2-2-----2---2-----2-2--------------------|
E|-----------------------------------------------------------------|

A little midnight madness Oh baby, you can't hide So wild 'n' unpredictable 
Step aside 'Cos you're, you're shooting wide 

e|--------------------------------------------------2---2---2----------|
B|--1-1--1-1--1-1-----2----2----2---1-1--1-1--1-1---3---3---3----------|
G|--2----2----2-------2----2----2---2----2----2-----2---2---2----------|
D|--3-2--3-2--3-2-----2----2----2---3-2--3-2--3-2----------------------|
A|----3----3----3---2----2----2-------3----3----3-----2---2---2--------|
E|------------------3----3----3-----------------------3---3---3--------|

Run for cover, she's so dangerous Undercover, she's so shameless 

[Repeat Chorus]

e|--------------0-------------------------0------------------------|
B|--4-4-4---------0---2-2-----4-4-4---------0---2-2----------------|
G|--4-4---4---1-------2---2---4-4---4---1-------2---2--------------|
D|--4-4-------2-------2-------4-4-------2-------2------------------|
A|--2-2-------2---------------2-2-------2--------------------------|
E|-----------------------------------------------------------------|

Don't shoot shotgun,You got me bitin' my lip 

e|--------------0------------------------------------------------|
B|--4-4-4---------0---2-2-----4-4-4---------2--2--2-2------------|
G|--4-4---4---1-------2---2---4-4---4---1---2--2--2-2------------|
D|--4-4-------2-------2-------4-4-------2---2--2--2-2------------|
A|--2-2-------2---------------2-2-------2------------------------|
E|---------------------------------------------------------------|

Don't shoot shotgun! Ya shootin' straight from the hip So don't shoot shotgun 

Oh 
Shake it, shake it! 
Ah, take this, little hit 'n' miss 

[guitar solo] 

e|---------------------------------------15------------------------------|
B|-12-13/15-15-15-15-13-12-12-12-12-13/15--15-15-15-15-15-13-12-13-13-13-|
G|-----------------------------------------------------------------------|
D|-----------------------------------------------------------------------|
A|-----------------------------------------------------------------------|
E|-----------------------------------------------------------------------|

e|--------------------------------17-------------------------17--------|
B|-12-12-12-13-13-12-13-13-----14----17-17-17-15-14-----14-15--16-15---|
G|---14----------------------14--------------------14-14---------------|
D|---------------------------------------------------------------------|
A|---------------------------------------------------------------------|
E|---------------------------------------------------------------------|


e|-------------------------------------17------------------------------|
B|-14-15-17-14-15-17-14-15-17-14-15-17---------------------------------|
G|---------------------------------------------------------------------|
D|---------------------------------------------------------------------|
A|---------------------------------------------------------------------|
E|---------------------------------------------------------------------|

[Repeat Chorus]

e|--------------0-------------------------0------------------------|
B|--4-4-4---------0---2-2-----4-4-4---------0---2-2----------------|
G|--4-4---4---1-------2---2---4-4---4---1-------2---2--------------|
D|--4-4-------2-------2-------4-4-------2-------2------------------|
A|--2-2-------2---------------2-2-------2--------------------------|
E|-----------------------------------------------------------------|

Don't shoot shotgun,You got me bitin' my lip 

e|--------------0-------------------------0------------------------|
B|--4-4-4---------0---2-2-----4-4-4---------0---2-2----------------|
G|--4-4---4---1-------2---2---4-4---4---1-------2---2--------------|
D|--4-4-------2-------2-------4-4-------2-------2------------------|
A|--2-2-------2---------------2-2-------2--------------------------|
E|-----------------------------------------------------------------|

Don't shoot shotgun! Ya shootin' straight from the hip So don't shoot shotgun

Don't shoot it! 
Don't shoot shotgun! 
Shake it, shake it! 
Aw, take this little hit 'n' miss 
Ow! 
(Don't shoot shotgun!) 
Oh shoot it! 
Don't shoot it! 
Uh, Oh shotgun! 
Shoot me, baby! 
Ow! 
Let it blow!


| /  slide up
| \  slide down
| h  hammer-on
| p  pull-off
| ~  vibrato
| +  harmonic
| x  Mute note
===============================================================================
Tap to rate this tab
# A B C D E F G H I J K L M N O P Q R S T U V W X Y Z