Song name
# A B C D E F G H I J K L M N O P Q R S T U V W X Y Z

Def Leppard - Long Long Way To Go tab

Artist: Def Leppard
Title: Long, Long Way To Go
Album: X
Tabbed By: Life Sentence

This is actually a really good ballad and Def Leppard are one of the best bands to come 
of this country.
I know it says this is just the intro but i got a bit carried away so I've done the 
song in tab aswell as putting the chords and lyrics at the end. Enjoy!

Tuning: Eb

Intro

eb----------------------------------------------------------------------------|
Bb----------------------------------------------------------------------------|
Gb--6-8-8/9-------------------------------6-8-8/9-----------------------------|
Db-----------6--6/7--9/11---------------6-----------6--6/7--9/11--------------|
Ab------------------------7--9--11-7-----------------------------7--9--11-7---|
Eb-----------------------------------7--------------------------------------7-|

eb------------|
Bb------------|
Gb-----9------|
Db-----9------|
Ab-----7------|
Eb-----7------|

eb---------|
Bb---------|
Gb--6-4-6--|
Db---------|
Ab---------|
Eb---------|

Verse

eb---------------------------------------------------------------------------|
Bb---------------------------------------------------------------------------|
Gb------------9----8--8h9p8-6-4-6------------9----8--9/11-9-8-6--------------|
Db---------------------------------------------------------------------------|
Ab---------------------------------------------------------------------------|
Eb---------------------------------------------------------------------------|

Eb-----------------------------------------------------------------------------------------|
Bb-----------------------------------------------------------------------------------------|
Gb-------9------8--------9---9-----11-----------9-11---------------------------------------|
Db-------9------9--------9---9-----11-----11-13--------------------------------------------|
Ab-----------------------------------------------------------------------------------------|
Eb-----------------------------------------------------------------------------------------|

Eb-----------------------------------------------------------------------------------------|
Bb-----------------------------------------------------------------------------------------|
Gb-----------------------------------------------------------------------------------------|
Db------------------------------------------------------9'11'9-----------------------------|
Ab-------------------------------------------------------------12-11-----------------------|
Eb-----------------------------------------------------------------------------------------|

Verses 2+3
	Repeat twice
Eb-----------------------------------------------------------------------------------------|
Bb-----------------------------------------------------------------------------------------|
Gb--6-----2------------4-------2------4----------------------------------------------------|
Db--6-----2-----2------4-------2------4----------------------------------------------------|
Ab--4-----0-----2------2-------0------2----------------------------------------------------|
Eb--------------0--------------------------------------------------------------------------|

Pre-Chorus

Eb-----------------------------------------------------------------------------------------|
Bb-----------------------------------------------------------------------------------------|
Gb--------------------2----------4----------6---------------2-------4----------------------|
Db--4-------6---------2----------4----------6-------2-------2-------4----------------------|
Ab--4-------6---------0----------2----------4-------2-------0-------2----------------------|
Eb--2-------4---------------------------------------0--------------------------------------|

Chorus

Eb-----------------------------------------------------------------------------------------|
Bb-----------------------------------------------------------------------------------------|
Gb--2-------------4-----------------2--------6--------4-------2----------------4-----------|
Db--2-----2-------4--------6--------2--------6--------4-------2-------2--------4-------6---|
Ab--0-----2-------2--------6--------0--------4--------2-------0-------2--------2-------6---|
Eb--------0----------------4------------------------------------------0----------------4---|

Eb-----------------------------------------------------------------------------------------|
Bb-----------------------------------------------------------------------------------------|
Gb------------2----------4-----------------------------------------------------------------|
Db--4---------2----------4-----------------------------------------------------------------|
Ab--4---------0----------2-----------------------------------------------------------------|
Eb--2--------------------------------------------------------------------------------------|

Verse 3

Eb------------------------------------------------------------9-11-12----------------------|
Bb----------------------------------------------------------9------------------------------|
Gb-------------------9--8---------8-9-11/13-----------------------------------9--11/13-----|
Db-------------------------11--9-----------------------------------------11----------------|
Ab-----------------------------------------------------------------------------------------|
Eb-----------------------------------------------------------------------------------------|

Eb-----------------------------------------------------------------------------------------|
Bb-----------------------------------------------------------------------------------------|
Gb------11'13--11--11-9-8------------------------------------------------------------------|
Db-------------------------11--------------------------------------------------------------|
Ab-----------------------------------------------------------------------------------------|
Eb-----------------------------------------------------------------------------------------|

Bridge

Eb-----------------------------------------------------------------------------------------|
Bb-----------------------------------------------------------------------------------------|
Gb--2---------6----------4-----------------------2-----------------------4------2----------|
Db--2---------6----------4----------6------------2------------2----------4------2----------|
Ab--0---------4----------2----------6------------0------------2----------2------0----------|
Eb----------------------------------4-------------------------0----------------------------|

Eb-----------------------------------------------------------------------------------------|
Bb-----------------------------------------------------------------------------------------|
Gb--6----------4-------------------------------------------2-------4-----------------------|
Db--6----------4---------6----------4------------6---------2-------4-----------------------|
Ab--4----------2---------6----------4------------6---------0-------2-----------------------|
Eb-----------------------4----------2------------4-----------------------------------------|

Ending

Eb-----------------------------------------------------------------------------------------|
Bb-----------------------------------------------------------------------------------------|
Gb--2-------------4-----------------2--------6--------4-------2----------------4-----------|
Db--2-----2-------4--------6--------2--------6--------4-------2-------2--------4-------6---|
Ab--0-----2-------2--------6--------0--------4--------2-------0-------2--------2-------6---|
Eb--------0----------------4------------------------------------------0----------------4---|

Eb-----------------------------------------------------------------------------------------|
Bb-----------------------------------------------------------------------------------------|
Gb------------2----------4-----------------------------------------------------------------|
Db--4---------2----------4-----------------------------------------------------------------|
Ab--4---------0----------2-----------------------------------------------------------------|
Eb--2--------------------------------------------------------------------------------------|

Intro: C#m A E B (2x)

Verse (2x)
C#m A E B
C#m A E B
C#m A E B
A B

PreChorus
F#m G#m A B
C#m E A B

Chorus
A E B
G#m A C#m B
A E B
G#m F#m A B

Intro part again (2x)

Verse

Pre Chorus

Chorus

Bridge
A C#m B G#m
A E B
A C#m B G#m
F#m G#m A B

Chorus until fade out.


Lyrics:

You held my hand and then you slipped away,
And I may never see your face again
So tell me how I fill the emptiness inside
Without love....What is life?

And anyone who knew us both could see,
We always were the better part of me
I never wanted to be this free,
And all this pain, does it go away?

And every time I look around,
And you’re nowhere to be found I know…

Chorus
I’ve got a long, long way to go
Before I can say goodbye
To you, oh!
I’ve got a long, long way to go
Before I can say goodbye
To all I ever knew
To you....To you

From memory there is no hiding place,
Turn on the T.V. and I see you there,
In every crowd there’s always someone with your face
Everywhere, tryin’ not to care

And every time I look around,
And you’re nowhere to be found I know…

Chorus

I wish you everything
An’ all the best that life can bring,
I only hope you think of me sometimes,
oh! And,
Even though I feel the pain
I know that I will love again,
The time will come, oh!
And I’ll move on

Repeat chorus (fade to end)
Tap to rate this tab
# A B C D E F G H I J K L M N O P Q R S T U V W X Y Z