Song name
# A B C D E F G H I J K L M N O P Q R S T U V W X Y Z

Def Leppard - Cmon Cmon tab

This is my first tab. No one taught it so I did.



Címon Címon Tab

e:-------------------------------------------------------------------|
B:-------------------------------------------------------------------|
G:-----8---6-----------------6---8---6-------------------------------|
D:-------8---8--6---6---6--8---8---8---8--6---6---6---6--------------|
A:-6-6------------6---6---------------------6---6---6---6------------|
E:-------------------------------------------------------------------| x2



Baby, baby, wonít you give me a good time,
         
e:-------------------------------------------------------------------|
B:-------------------------------------------------------------------|
G:-------------------------------------------------------------------|
D:-4/6---------------------------------------------------------------|
A:-2/4-----4/6-------------------------------------------------------|
E:---------2/4-------------------------------------------------------| x3 
Tap to rate this tab
# A B C D E F G H I J K L M N O P Q R S T U V W X Y Z