Song name
# A B C D E F G H I J K L M N O P Q R S T U V W X Y Z

Def Leppard - Photograph tab

DEF LEPPARD - PHOTOGRAPH

I just took the rhythm parts from Def Leppard song and use my ears to write down the song. 
It is for those who like rythmen part of the song and Have a nice day!
If you hate or dislike it here is my link below!
Musican_seba@live.se


BPM :    126 Allegero 4/4 
AMP:     Cranked Marshall Plexi(Hot rod or JCM800)
EQ:      Classic V or Midboost
Reverb:  somewhere 14 o´clock
Delay:   The early 80s Style

*  Palm-mute
P  Pull-of
H  Hammer-on
V  Vibrato
¤  Harmonics
B  Bends
/  Up slides
\  Down Slides
x  Scrash



e|--------------------------------------------------|
B|--------------------------------------------------|
G|-------9-9-8-8-8~~-9-9-7~~--9-9-8-8-8~~-9-9-7~~---|
D|-9~~---9-9-9-9-9~~-7-7-7~~--9-9-9-9-9~~-7-7-7~~---|  
A|--------------------------------------------------|
E|--------------------------------------------------|


e|--------------------------------------------x-----|
B|--------------------------------------------x-----|
G|----9-9-8-8---9-9-7-7---9-9-8-8---9-9-7-7---------|
D|----9-9-9-9---7-7-7-7---9-9-9-9---7-7-7-7---------|  
A|-------------------------------------------x------|
E|-------------------------------------------x------|


e|------------------------|
B|------------------------|
G|----9-9-8-8---9-9-7-7---|
D|----9-9-9-9---7-7-7-7---| X4
A|------------------------|
E|------------------------|


e|------------------------|
B|------------------------|
G|----9-9-8-8---9---------|
D|----9-9-9-9---7--9-9\0--| 
A|-----------------7-7\0--|
E|------------------------|


    * * * * * * * * * * * * * *
e|---------------------------------------|
B|---------------------------------------|
G|---------------------------------------|
D|------------------------------9-9\0----|  X2
A|------------------------------7-7\0----|
E|--0-0-0-0-0-0-0-0-0-0-0-0-0-0----------|


    * * * * * * * * * * * * * *
e|----------------------------------------------------|
B|----------------------------------------------------|
G|----------------------------------------9~--9-9\0---|
D|------------------------------9-9\5-5-2-7~--7-7\0---|  
A|------------------------------7-7\3-3-0-------------|
E|--0-0-0-0-0-0-0-0-0-0-0-0-0-0-----------------------|


         *         *   
e|----------------------------------------|
B|----------------------------------------|
G|-------------------------2~~---2--------|
D|---5-5---5~--5-5---5~--2-0~~-2-0---2----| X2 
A|---3-3-0-3~--2-2-0-2~--0-----0-----0----|
E|---------------------------------3------|


e|-----------------------|
B|-----------------------|
G|----0--0~~--0~--0------|
D|---0--2~~--4~--4-4-----| X3 
A|--2--3~~--5~--7---5----|
E|-----------------------|


e|------------------------------------------------------|
B|------------8/10-10-10--8/10-10-10--7/10-10-10--------|
G|----0--0~~--5/7--7--7---5/7--7--7---5/7--7--7---------|
D|---0--2~~--------------------------------------9-9\0--|  
A|--2--3~~---------------------------------------7-7\0--|
E|------------------------------------------------------|


    * * * * * * * * * * * * * * * * *
e|--------------------------------------|
B|--------------------------------------|
G|--------------------------------------|
D|--------------------------------------|  X2
A|--------------------------------------|
E|--0-0-0-0-0-0-0-0-0-0-0-0-0-0-0-0-0---|

   * * * * * * * * * * * * * *
e|------------------------------------------|
B|------------------------------------------|
G|------------------------------------------|
D|------------------------------9--9-9\0----| 
A|------------------------------7--7-7\0----|
E|--0-0-0-0-0-0-0-0-0-0-0-0-0-0-------------|

   * * * * * * * * * * * * * *
e|---------------------------------------|
B|---------------------------------------|
G|---------------------------------------|
D|------------------------------9-9\0----|  X2
A|------------------------------7-7\0----|
E|--0-0-0-0-0-0-0-0-0-0-0-0-0-0----------|


    * * * * * * * * * * * * * *
e|-----------------------------------------------------|
B|-----------------------------------------------------|
G|----------------------------------------9~--9-9\0----|
D|------------------------------9-9\5-5-2-7~--7-7\0----|  
A|------------------------------7-7\3-3-0--------------|
E|--0-0-0-0-0-0-0-0-0-0-0-0-0-0------------------------|


         *         *
e|---------------------------------------|
B|---------------------------------------|
G|-------------------------2~~---2-------|
D|---5-5---5~--5-5---5~--2-0~~-2-0---2---| X2 
A|---3-3-0-3~--2-2-0-2~--0-----0-----0---|
E|---------------------------------3-----|


e|-----------------------|
B|-----------------------|
G|----0--0~~--0~--0------|
D|---0--2~~--4~--4-4-----| X3 
A|--2--3~~--5~--7---5----|
E|-----------------------|

             |              solo begins!                   |
e|-----------|---------------------------------------------|
B|-----------|---------------------------------------------|
G|----0--0~~-|-9-9-8-8-8~~--9-9-7~~--9-9-8-8-8~~--9-9-7~~--|
D|---0--2~~--|-9-9-9-9-9~~--7-7-7~~--9-9-9-9-9~~--7-7-7~~--|  
A|--2--3~~---|---------------------------------------------|
E|-----------|---------------------------------------------|

 |        solo continues!     |
e|----------------------------|
B|----------------------------|
G|----9-9-8-8-8~~--9-9-7~~----|
D|----9-9-9-9-9~~--7-7-7~~----| X2
A|----------------------------|
E|----------------------------|

 |          Solo ends!        |
e|----------------------------|
B|----------------------------|
G|----9-9-8-8-8~~--9-9-7~~----|
D|----9-9-9-9-9~~--7-7-7~~----| X4
A|----0-0~~--------0-0~~------|
E|----------------------------|


          *           *
e|------------------------------------------------|
B|--3-3-3---3~--3-3-3---3~-----3~-----3~----------|
G|--0-0-0---0~--0-0-0---0~--0~-2~--0~-2~----0~----|
D|--x-x-x---x---x-x-x---x---2~-0~--2~-0~----2~----|  
A|--3-3-3-0-3~--2-2-2-0-2~--2~-----2~-------2~----|
E|----------------------------------------3-------|


         *         *
e|----------------------------------------|
B|----------------------------------------|
G|-------------------------2~~---2--------|
D|---5-5---5~--5-5---5~--2-0~~-2-0---2----|
A|---3-3-0-3~--2-2-0-2~--0-----0-----0----|
E|---------------------------------3------|


e|------------------------|
B|------------------------|
G|------0--0~~--0--0------|
D|-----0--2~~--4--4-4-----| X3 
A|----2--3~~--5--7---5----|
E|------------------------|


           |Turn Down |                                  |
           |the volume|  Raise volyumen                  |
           | *        |  * * * * * * * *                 |
e|---------|----------|----------------------------------|
B|---------|----------|----------------------------------|
G|----0--0-|----------|----------------------------------|
D|---0--2--|---5\0----|--9-9-9-9-9-9-9-9-9-9-9-9-9\0-----|  
A|--2--3---|-0-3\0----|--7-7-7-7-7-7-7-7-7-7-7-7-7\0-----|
E|---------|----------|----------------------------------|

 | Solo begins nr.2!        |
                      | Mini|
           X4         |pause|
e|--------------------|-----|
B|--------------------|-----|
G|---0--0~~--0~--0----|-----|
D|--0--2~~--4~--4-4---|-----|  
A|-2--3~~--5~--7---5--|-----|
E|--------------------|-----|

 |      Solo Fades!         |
e|--------------------------|
B|--------------------------|
G|------0--0~~--0~--0-------|
D|-----0--2~~--4~--4-4------| Fade
A|----2--3~~--5~--7---5-----|
E|--------------------------|
Tap to rate this tab
# A B C D E F G H I J K L M N O P Q R S T U V W X Y Z