Song name
# A B C D E F G H I J K L M N O P Q R S T U V W X Y Z

Def Leppard - Tonight tab

I was really disappointed with the "Tonight" tabs on here already, so I just
tabbed out the electric version of how I normally play it. I'll probably post up
an acoustic version soon. I'm not including the solo or lead parts in this (yet),
but they're really easy to pick up, if you want to learn them. Tuning is Standard
E. Let me know if you'd like to see anything added.

Kelly Gimm
E-mail: xxwithyouxx@gmail.com

All song copyrights belong to Def Leppard. I own nothing.

Key
X   - muted note
PM   - palm mute
~   - vibrato
/   - slide up
\   - slide down
h   - hammer on
p   - pull off
-----------------------------------------------------


 INTRO
e|----0---------0-----------0-------1--------------------------------------0--|
B|------1---------1-------1----------2-----------0-------0-----1----3----1----|
G|--------2--0------0-----------------0--------2------------------------------|
D|---------------------4-------0-3-----------2---------0----------------------|
A|-0---------------------------------------0----------------0-0---2---3-------|
E|--------------------------------------------------3-------------------------|


  I don't wanna play the waiting game and drift away, leaving an illusion
e|----0---------0-----------0-------1--------------------------------------0--|
B|------1---------1-------1----------2-----------0-------0-----1----3----1----|
G|--------2--0------0-----------------0--------2------------------------------|
D|---------------------4-------0-3-----------2---------0----------------------|
A|-0---------------------------------------0----------------0-0---2---3-------|
E|--------------------------------------------------3-------------------------|


  I don't wanna hide its foolish pride, to close my eyes; a touch away from wanting you
e|----0---------0-----------0-------1--------------------------------------0--|
B|------1---------1-------1----------2-----------0-------0-----1----3----1----|
G|--------2--0------0-----------------0--------2------------------------------|
D|---------------------4-------0-3-----------2---------0----------------------|
A|-0---------------------------------------0----------------0-0---2---3-------|
E|--------------------------------------------------3-------------------------|


INTERLUDE
e|-----------0--------|----------0---------|---------------------------|
B|-------1-----1---1--|------1-----1---1---|---------------------------|
G|-----4---4-----4----|----4---4-----4-----|---------------------------|
D|--------------------|--------------------|---------------------------|       x2
A|-0------------------|-0------------------|---------------------------|
E|--------------------|--------------------|---------------------------|



  Don't try to look away when you're face to face; I see your eyes, that animal emotion
e|----0---------0-----------0-------1--------------------------------------0--|
B|------1---------1-------1----------2-----------0-------0-----1----3----1----|
G|--------2--0------0-----------------0--------2------------------------------|
D|---------------------4-------0-3-----------2---------0----------------------|      x3
A|-0---------------------------------------0----------------0-0---2---3-------|
E|--------------------------------------------------3-------------------------|


 You don't have to set your tender trap; it's in those eyes, it's gonna happen anyway
e|----0---------0-----------0-------1--------------------------------------0--|
B|------1---------1-------1----------2-----------0-------0-----1----3----1----|
G|--------2--0------0-----------------0--------2------------------------------|
D|---------------------4-------0-3-----------2---------0----------------------|      x3
A|-0---------------------------------------0----------------0-0---2---3-------|
E|--------------------------------------------------3-------------------------|


 Movin' to the rhythm of your heartbeat.. yeah, I'm wanting, willing; touchin you, we'll be
e|--------------------------------------------|----------------------------------|
B|------1--------1------------1----------1----|----------------------------------|
G|----2--------2---2--------2----------2---2--|--------0~-----2----4---5~--------|
D|--------------------------------------------|---------------2----4---5~--------|
A|-0------------------------------------------|---------------0----2---3~--------|
E|----------3-----------2-----------1---------|---0-0----------------------------|



Movin to the rhythm of your heartbeat.. oh babe, when ya get that rhythm, gonna move 
into your room
e|--------------------------------------------|--------3--------------------------|
B|------1--------1------------1----------1----|--------3--------------------------|
G|----2--------2---2--------2----------2---2--|---2----0---------2----4---5~------|
D|--------------------------------------------|---2----0---------2----4---5~------|
A|-0------------------------------------------|---0----2---------0----2---3~------|
E|----------3-----------2-----------1---------|--------3--------------------------|



TONIGHT - Give me love with no disguise
e|----------------------------------------|
B|----------------------------------------|
G|-2-2~------14\12~----12\11-----11\10~---|
D|-2-2~-------x--x------x-x-------x-x-----|
A|-0-0~------12\10~----10\9-------9\8~----|
E|----------------------------------------|


TONIGHT - I see the fire in your eyes
e|----------------------------------------|
B|----------------------------------------|
G|-2-2~------14\12~----12\11-----11\10~---|
D|-2-2~-------x--x------x-x-------x-x-----|
A|-0-0~------12\10~----10\9-------9\8~----|
E|----------------------------------------|



TONIGHT - So right, this night could be dynamite.. wait and see
e|----0---------0-----------0-------1-------------3~-----|
B|------1---------1-------1----------2------------3~-----|
G|--------2--0------0-----------------0------2~---0~-----|
D|---------------------4-------0-3-----------2~---0~-----|
A|-0-----------------------------------------0~---2~-----|
E|------------------------------------------------3~-----|


If it pleases you, it pleases me...
e|----------|
B|-1~-------|
G|-2~-------|
D|-2~-------|
A|-0~-------|
E|----------|


INTERLUDE
e|-----------0--------|----------0---------|---------------------------|
B|-------1-----1---1--|------1-----1---1---|---------------------------|
G|-----4---4-----4----|----4---4-----4-----|---------------------------|
D|--------------------|--------------------|---------------------------|       x2
A|-0------------------|-0------------------|---------------------------|
E|--------------------|--------------------|---------------------------|



  There's nothing I can say, its no mystery; it's in your eyes, those eyes are where I 
won't have been
e|----0---------0-----------0-------1--------------------------------------0--|
B|------1---------1-------1----------2-----------0-------0-----1----3----1----|
G|--------2--0------0-----------------0--------2------------------------------|
D|---------------------4-------0-3-----------2---------0----------------------|      x3
A|-0---------------------------------------0----------------0-0---2---3-------|
E|--------------------------------------------------3-------------------------|


 So give me heart and soul, I lose control; Can't stop my eyes from falling into fantasy
e|----0---------0-----------0-------1--------------------------------------0--|
B|------1---------1-------1----------2-----------0-------0-----1----3----1----|
G|--------2--0------0-----------------0--------2------------------------------|
D|---------------------4-------0-3-----------2---------0----------------------|      x3
A|-0---------------------------------------0----------------0-0---2---3-------|
E|--------------------------------------------------3-------------------------|


 Movin' to the rhythm of your heartbeat.. oh, I'm wanting, willing; touchin you, we'll be
e|--------------------------------------------|----------------------------------|
B|------1--------1------------1----------1----|----------------------------------|
G|----2--------2---2--------2----------2---2--|--------0~-----2----4---5~--------|
D|--------------------------------------------|---------------2----4---5~--------|
A|-0------------------------------------------|---------------0----2---3~--------|
E|----------3-----------2-----------1---------|---0-0----------------------------|



Movin to the rhythm of your heartbeat.. oh yeah, when ya get that rhythm, gonna move 
into your room
e|--------------------------------------------|--------3--------------------------|
B|------1--------1------------1----------1----|--------3--------------------------|
G|----2--------2---2--------2----------2---2--|---2----0---------2----4---5~------|
D|--------------------------------------------|---2----0---------2----4---5~------|
A|-0------------------------------------------|---0----2---------0----2---3~------|
E|----------3-----------2-----------1---------|--------3--------------------------|


TONIGHT - Give me love with no disguise
e|----------------------------------------|
B|----------------------------------------|
G|-2-2~------14\12~----12\11-----11\10~---|
D|-2-2~-------x--x------x-x-------x-x-----|
A|-0-0~------12\10~----10\9-------9\8~----|
E|----------------------------------------|


TONIGHT - I see the fire in your eyes
e|----------------------------------------|
B|----------------------------------------|
G|-2-2~------14\12~----12\11-----11\10~---|
D|-2-2~-------x--x------x-x-------x-x-----|
A|-0-0~------12\10~----10\9-------9\8~----|
E|----------------------------------------|



TONIGHT - So right, this night could be dynamite.. wait and see
e|----0---------0-----------0-------1-------------3~-----|
B|------1---------1-------1----------2------------3~-----|
G|--------2--0------0-----------------0------2~---0~-----|
D|---------------------4-------0-3-----------2~---0~-----|
A|-0-----------------------------------------0~---2~-----|
E|------------------------------------------------3~-----|


Check it out..   x3    x3   x3
e|------3~---|---------3----3~--|
B|------3~---|---------3----3~--|
G|--2---0~---|----2----0----0~--|
D|--2---0~---|----2----0----0~--|
A|--0---2~---|----0----2----2~--|
E|------3~---|---------3----3~--|


SOLO  (Backing is just Am & G chords in the same rhythm pattern as the first part of 
"Check it out")
e|------3~---|
B|------3~---|
G|--2---0~---|
D|--2---0~---|
A|--0---2~---|
E|------3~---|


TONIGHT - Give me love with no disguise
e|----------------------------------------|
B|----------------------------------------|
G|-2-2~------14\12~----12\11-----11\10~---|
D|-2-2~-------x--x------x-x-------x-x-----|
A|-0-0~------12\10~----10\9-------9\8~----|
E|----------------------------------------|


TONIGHT - I see the fire in your eyes
e|----------------------------------------|
B|----------------------------------------|
G|-2-2~------14\12~----12\11-----11\10~---|
D|-2-2~-------x--x------x-x-------x-x-----|
A|-0-0~------12\10~----10\9-------9\8~----|
E|----------------------------------------|



TONIGHT - So right, this night could be dynamite.. wait and see
e|----0---------0-----------0-------1-------------3~-----|
B|------1---------1-------1----------2------------3~-----|
G|--------2--0------0-----------------0------2~---0~-----|
D|---------------------4-------0-3-----------2~---0~-----|
A|-0-----------------------------------------0~---2~-----|
E|------------------------------------------------3~-----|


If it pleases you, it pleases me...
e|----------|
B|-1~-------|
G|-2~-------|
D|-2~-------|
A|-0~-------|
E|----------|
Tap to rate this tab
# A B C D E F G H I J K L M N O P Q R S T U V W X Y Z