Song name
# A B C D E F G H I J K L M N O P Q R S T U V W X Y Z

Def Leppard - Go tab

-----------------------------------------------------------------------------
                                  
                  Go - Def Leppard (GUITAR)
            
-----------------------------------------------------------------------------
Tabbed by: Scotto10

Tuning: Down a half step for sure. One in Drop "D" - if you want to.

So this one is interesting. It may sound a little messy 
with the midi playback (on the Guitar Pro version) but I can assure you that 
the two guitars are playing *slightly* different parts for certain. 
I transcribed it with one  guitar in standard tuning and one in Drop D to 
show that it can be done either way. 
The Drop D tuned guitar does sound meatier though 
when barring all the way across for the G and F chords on the 6th string 
so I think it sounds better this way. Of course, Def 
Leppard uses 4 or 5 or 6 or more guitars to get it to 
sound like this but you can do it with two.

Also, IF... there is guitar during the verse it is an effect 
and it is an OCTAVE lower via an effect processor. I suppose you could follow 
the bass line to add a little livelyness to it.


=============================================================================       


Guitar 1



              Q     S  S  E   S  S  E   S  S  S   S  
D#||-------|--------0--0--0---0--0--0---0--0--0-----|
A#||-------|-------12-12-12--12-12-10--12-12-12s-13-|
F#||-------|----------------------------------------|
C#||-------|----------------------------------------|
G#||-------|----------------------------------------|
D#||-------|----------------------------------------|


   E    E    S  S  E   S  S  E   S  S  S   S  
---0----0----0--0--0---0--0--0---0--0--0-----|
--12b--12~--12-12-12--12-12-10--12-12-12s-13-|
---------------------------------------------|
---------------------------------------------|
---------------------------------------------|
---------------------------------------------|


                                                 W                              
   S  S  E   S  S  E   S  S  E   S  S  S   S     Q     S  S  E  S S E  E.    S  
---0--0--0---0--0--0---0--0--0---0--0--0-----|---0-----0--0--0--0-0-0--0-------|
--12-12-12--12-12-10--12-12-10--12-12-12s-13-|--12----12-12-10--8-8-7--5s---19-|
---------------------------------------------|---------------------------------|
---------------------------------------------|---------------------------------|
---------------------------------------------|---------------------------------|
---------------------------------------------|---------------------------------|


   E    E    S  S  E   S  S  E   S  S  S   S  
---0----0----0--0--0---0--0--0---0--0--0-----|
--12b--12~--12-12-12--12-12-10--12-12-12s-13-|
---------------------------------------------|
---------------------------------------------|
---------------------------------------------|
---------------------------------------------|


   E    E    S  S  E   S  S  E   S  S  S   S  
---0----0----0--0--0---0--0--0---0--0--0-----|
--12b--12~--12-12-12--12-12-10--12-12-12s-13-|
---------------------------------------------|
---------------------------------------------|
---------------------------------------------|
---------------------------------------------|


                                                 W                             
   E    E    S  S  E   S  S  E   S  S  S   S     Q     S  S  E  S S E  E   E   
---0----0----0--0--0---0--0--0---0--0--0-----|---0-----0--0--0--0-0-0--0------|
--12b--12~--12-12-12--12-12-10--12-12-12s-13-|--12----12-12-10--8-8-7--5/-----|
---------------------------------------------|--------------------------------|
---------------------------------------------|--------------------------------|
---------------------------------------------|--------------------------------|
---------------------------------------------|--------------------------------|


  IF.. there is guitar here it is an effect and                      
  W                                                W                 
------------------------------------------------|-------------------|
------------------------------------------------|-------------------|
------------------------------------------------|-------------------|
------------------------------------------------|-------------------|
------------------------------------------------|-------------------|
------------------------------------------------|-------------------|


                      it is an OCTAVE lower                                  
  W                   W                                                      
-------------------|------------------------|-------|-------|-------|-------|
-------------------|------------------------|-------|-------|-------|-------|
-------------------|------------------------|-------|-------|-------|-------|
-------------------|------------------------|-------|-------|-------|-------|
-------------------|------------------------|-------|-------|-------|-------|
-------------------|------------------------|-------|-------|-------|-------|


  PM PM PM PM > > PM PM PM PM > > PM PM     
  S  S  S  S  S S S  S  S  S  S S S  S  E   
-------------------------------------------|
-------------------------------------------|
-------------------------------------------|
--5--5--5--5--5-5-5--5--5--5--5-5-5--5--5--|
-------------------------------------------|
-------------------------------------------|


  PM PM PM PM > > PM PM PM PM > > PM PM     
  S  S  S  S  S S S  S  S  S  S S S  S  E   
-------------------------------------------|
-------------------------------------------|
-------------------------------------------|
--4--4--4--4--4-4-4--4--4--4--4-4-4--4--4--|
-------------------------------------------|
-------------------------------------------|


  PM PM PM PM > > PM PM PM PM > > PM PM     
  S  S  S  S  S S S  S  S  S  S S S  S  E   
-------------------------------------------|
-------------------------------------------|
-------------------------------------------|
--3--3--3--3--3-3-3--3--3--3--3-3-3--3--3--|
-------------------------------------------|
-------------------------------------------|


  PM PM PM PM > > PM PM PM PM > > PM PM                                        
  S  S  S  S  S S S  S  S  S  S S S  S  E     S S S S S S S S S S S S S S S S  
-------------------------------------------|--0-0-0-0-0-0-0-0-0-0-0-0-0-0-0-0-|
-------------------------------------------|--5-5-5-5-5-5-5-5-3-5-5-5-6-6-5-5-|
-------------------------------------------|----------------------------------|
--2--2--2--2--2-2-2--2--2--2--2-2-2--2--2--|----------------------------------|
-------------------------------------------|----------------------------------|
-------------------------------------------|----------------------------------|


  S S S S S S S S  S S S  S S S S S    S S S S S S S S S S S S S S E   
--0-0-0-0-0-0-0-0--0-L----0-0-0-0-0-|--0-0-0-0-0-0-0-0-0-0-0-0-0-0-0--|
--5-5-5-5-5-5-5-5-/9-L-L\---5-5-5-5-|--5-5-5-5-5-5-5-5-3-5-5-5-6-6-5--|
------------------------------------|---------------------------------|
------------------------------------|---------------------------------|
------------------------------------|---------------------------------|
------------------------------------|---------------------------------|


           |--3--|       |--3--|                                        
  E  E  E  S  S  S E  E  S  S  S E     S S S S S S S S S S S S S S S S  
------------------------------------|--0-0-0-0-0-0-0-0-0-0-0-0-0-0-0-0-|
------------------------------------|--5-5-5-5-5-5-5-5-3-5-5-5-6-6-5-5-|
--7--7--7--7h-9p-7-5--5--5h-7p-5-4--|----------------------------------|
------------------------------------|----------------------------------|
------------------------------------|----------------------------------|
------------------------------------|----------------------------------|


  S S S S S S S S  S S S  S S S S S    S S S S S S S S S S S S S S E   
--0-0-0-0-0-0-0-0--0-L----0-0-0-0-0-|--0-0-0-0-0-0-0-0-0-0-0-0-0-0-0--|
--5-5-5-5-5-5-5-5-/9-L-L\---5-5-5-5-|--5-5-5-5-5-5-5-5-3-5-5-5-6-6-5--|
------------------------------------|---------------------------------|
------------------------------------|---------------------------------|
------------------------------------|---------------------------------|
------------------------------------|---------------------------------|


           |--3--|       |--3--|     
  E  E  E  S  S  S E  E  S  S  S E   
------------------------------------|
------------------------------------|
--7--7--7--7h-9p-7-5--5--5h-7p-5-4--|
------------------------------------|
------------------------------------|
------------------------------------|


   S  S  E   S  S  E   S  S  E   S  S  S   S    Q    Q    H          
---0--0--0---0--0--0---0--0--0---0--0--0-----|---------------------||
--12-12-12--12-12-10--12-12-10--12-12-12s-13-|---------------------||
---------------------------------------------|---------------------||
---------------------------------------------|---------------------||
---------------------------------------------|--2------------------||
---------------------------------------------|--0------------------||


=============================================================================    
=============================================================================    



Guitar 2



              Q     S  S  E   S  S  E   S  S  E   
D#||-------|--------0--0--0---0--0--0---0--0--0--|
A#||-------|-------12-12-12--12-12-10--12-12-10--|
F#||-------|-------------------------------------|
C#||-------|-------------------------------------|
G#||-------|-------------------------------------|
C#||-------|-------------------------------------|


   E     E      S  S  E   S  S  E   S  S  E   
----------------0--0--0---0--0--0---0--0--0--|
--12br--12br~--12-12-12--12-12-10--12-12-10--|
---------------------------------------------|
---------------------------------------------|
---------------------------------------------|
---------------------------------------------|


                                              W                           
   E    E    S  S  E   S  S  E   S  S  E      Q     S  S  E  S S E  Q     
---0----0----0--0--0---0--0--0---0--0--0--|---0-----0--0--0--0-0-0--0----|
--12b--12~--12-12-12--12-12-10--12-12-10--|--12----12-12-10--8-8-7--5----|
------------------------------------------|------------------------------|
------------------------------------------|------------------------------|
------------------------------------------|------------------------------|
------------------------------------------|------------------------------|


  Q    Q    E  E  Q       Q    Q    E  E  Q       Q    Q    E  E  Q     
-----------------------|-----------------------|-----------------------|
-----------------------|-----------------------|-----------------------|
-----------------------|-----------------------|-----------------------|
-----------------------|-----------------------|-----------------------|
--2------------2--3----|--2------------2--3----|--2------------2--3----|
--2------------2--3----|--2------------2--3----|--2------------2--3----|


  Q    H        Q                                                             
---------------------|-------|-------|-------|-------|-------|-------|-------|
---------------------|-------|-------|-------|-------|-------|-------|-------|
---------------------|-------|-------|-------|-------|-------|-------|-------|
---------------------|-------|-------|-------|-------|-------|-------|-------|
--2------------------|-------|-------|-------|-------|-------|-------|-------|
--2------------------|-------|-------|-------|-------|-------|-------|-------|


          PM PM PM PM > > PM PM PM PM > > PM PM     
          S  S  S  S  S S S  S  S  S  S S S  S  E   
-------|-------------------------------------------|
-------|-------------------------------------------|
-------|-------------------------------------------|
-------|--------------5-5-------------5-5-------5--|
-------|-------------------------------------------|
-------|--5--5--5--5------5--5--5--5------5--5-----|


  PM PM PM PM > > PM PM PM PM > > PM PM     
  S  S  S  S  S S S  S  S  S  S S S  S  E   
-------------------------------------------|
-------------------------------------------|
-------------------------------------------|
--------------4-4-------------4-4-------4--|
-------------------------------------------|
--4--4--4--4------4--4--4--4------4--4-----|


  PM PM PM PM > > PM PM PM PM > > PM PM     
  S  S  S  S  S S S  S  S  S  S S S  S  E   
-------------------------------------------|
-------------------------------------------|
-------------------------------------------|
--------------3-3-------------3-3-------3--|
-------------------------------------------|
--3--3--3--3------3--3--3--3------3--3-----|


  PM PM PM PM > > PM PM PM PM > > PM PM                             
  S  S  S  S  S S S  S  S  S  S S S  S  E     Q    Q    E  E  Q     
-------------------------------------------|-----------------------|
-------------------------------------------|-----------------------|
-------------------------------------------|-----------------------|
--------------2-2-------------2-2-------2--|-----------------------|
-------------------------------------------|--2------------2--3----|
--2--2--2--2------2--2--2--2------2--2-----|--2------------2--3----|


  Q    Q    E  E  Q       Q    Q    E  E  Q       H        H         
-----------------------|-----------------------|--------------------|
-----------------------|-----------------------|--8--------6--------|
-----------------------|-----------------------|--7--------5--------|
-----------------------|-----------------------|--5--------3--------|
--2------------2--3----|--2------------2--3----|--5--------3--------|
--2------------2--3----|--2------------2--3----|--5--------3--------|


  Q    Q    E  E  Q       Q    Q    E  E  Q       Q    Q    E  E  Q     
-----------------------|-----------------------|-----------------------|
-----------------------|-----------------------|-----------------------|
-----------------------|-----------------------|-----------------------|
-----------------------|-----------------------|-----------------------|
--2------------2--3----|--2------------2--3----|--2------------2--3----|
--2------------2--3----|--2------------2--3----|--2------------2--3----|


  H        H           Q.      E  H                      
--------------------|----------------------|-----------||
--8--------6--------|----------------------|-----------||
--7--------5--------|--9\------------------|-----------||
--5--------3--------|--9\------------------|-----------||
--5--------3--------|--7\------------------|-----------||
--5--------3--------|----------------------|-----------||












Duration Legend
---------------
W - whole
H - half
Q - quarter
E - 8th
S - 16th
T - 32nd
X - 64th
. - note dotted
|-n-|  - n-tuplets


Tablature Legend
----------------
L - tied note
x - dead note
g - grace note
(n) - ghost note
> - accentuded note
NH - natural harmonic
AH - artificial harmonic
TH - tapped harmonic
SH - semi harmonic
PH - pitch harmonic
h - hammer on
p - pull off
b - bend
br - bendRelease
pb - preBend
pbr - preBendRelease
brb - bendReleaseBend
\n/ - tremolo bar dip
\n - tremolo bar dive
-/n - tremolo bar Release up
/n\ - tremolo bar inverted dip
/n - tremolo bar return
-\n - tremolo bar Release down
S - shift slide
s - legato slide
/ -  slide into from below or out of upwards
\ -  slide into from above or out of downwards
~ - vibrato
W - wide vibrato
tr - trill
TP - tremolo picking
T - tapping
S - slap
P - pop
< - fade in
^ - brush up
v - brush down
Tap to rate this tab
# A B C D E F G H I J K L M N O P Q R S T U V W X Y Z