Song name
# A B C D E F G H I J K L M N O P Q R S T U V W X Y Z

Def Leppard - Miss You In A Heartbeat tab

        Def leppard – Missed you in a heartbeat solo (Electric version)
                          From “Retro active”

By Sanjeev George and Thomas George
Mail at SanjeevGeorge123@yahoo.co.in

| /  slide up
| \  slide down
| h  hammer-on
| p  pull-off
| +  pinch harmonic
| v  vibrato


e|-----------------------------5----------------------------|
B|-------------------------------8-5------------------------|
G|----7b9—-7b9---7p5-7+----7b9-------7b9—7p5---5------------|
D|-------------------------------------------7--------------|
A|----------------------------------------------------------|
E|----------------------------------------------------------|

e|----------------------------------------------------------|
B|-----------------8b----15b—-15b----15p13------------------|
G|-------5-7-7b----------------------------12v--------------|
D|---5-7----------------------------------------------------|
A|----------------------------------------------------------|
E|----------------------------------------------------------|


e|------------------------------------------------------|
B|------------10----12----------10----------------------|
G|------12----------------12----------12v---------------|
D|---12----12----12----12----12----12-------------------|
A|------------------------------------------------------|
E|------------------------------------------------------|
     -----------Palm muted-----------


e|----------------------------10-12----10-12--12-13-13/15v---------|
B|-------------------10-12-13-------13-----------------------------|
G|---9-10----9-10-12-----------------------------------------------|
D|--------12-------------------------------------------------------|
A|-----------------------------------------------------------------|
E|-----------------------------------------------------------------|

e|----22b---22p20-22v----22b--------|
B|----------------------------------|
G|----------------------------------|
D|----------------------------------|
A|----------------------------------|
E|----------------------------------|
Tap to rate this tab
# A B C D E F G H I J K L M N O P Q R S T U V W X Y Z