Guitaretab - guitar tabs
Song name
# A B C D E F G H I J K L M N O P Q R S T U V W X Y Z

Def Leppard - Wasted tab

-------------------------------------------------------------------------------
			Wasted-Def leppard
-------------------------------------------------------------------------------
Tabbed by:Sanjeev George & Thomas George

Email:bassatom@yahoo.co.in

All right, this song needs 2 guitars-one rhythm and one lead
They r pretty simple but u must practice changing the chords fast.
We dont know if this is how def leppard really plays it, but we hope its correct.


| s  slide
| h  hammer-on
| p  pull-off
| ~  let ring
| v  vibrato
| b bend
| r release

Tuning: Standard

 Riff A
e|---------------------------------------------------------------------------|
B|---------------------------------------------------------------------------|
G|---------------------------------------------------------------------------|
D|-----------------------5---------------------------------------------------|
A|-------7-------5---------------7-------5-----------------------------------|
E|--0-0-----0-0-----0-0-----0-0-----0-0-----0--------------------------------|

e|---------------------------------------------------------------------------|
B|---------------------------------------------------------------------------|
G|-----5-5-5-5-5-5s7-7-7s4-4-4-----------------------------------------------|
D|-----5-5-5-5-5-5s7-7-7s4-4-4-----------------------------------------------|
A|-----3-3-3-3-3-3s5-5-5s2-2-2-----------------------------------------------|
E|--0------------------------------------------------------------------------|


Riff B
e|---------------------------------------------------------------------------|
B|---------------------------------------------------------------------------|
G|-----7-----5---------------------------------------------------------------|
D|-----7--7--5---------------------------------------------------------------|
A|-----5--7--3---0h2p0-------------------------------------------------------|
E|-0------5--------------3--2--0---------------------------------------------|

Riff C   all chords let ring briefly
e|---------------------------------------------------------------------------|
B|---------------------------------------------------------------------------|
G|---------5---4--7--9--------9s7s5------------------------------------------|
D|--0--5---5---4--7--9--------9s7s5------------------------------------------|
A|--0--5---3---2--5--7--------7s5s3------------------------------------------|
E|-----3---------------------------------------------------------------------|

e|---------------------------------------------------------------------------|
B|------------8s10s8---------------------------------------------------------|
G|--5s7s9-----7s9s7---7------------------------------------------------------|
D|--5s7s9-----5s7s5---7------------------------------------------------------|
A|--3s5s7-------------5------------------------------------------------------|
E|---------------------------------------------------------------------------|

e|---------------------------------------------------------------------------|
B|--8-8-8s10s8---------------------------------------------------------------|
G|--7-7-7s9s7---9------------------------------------------------------------|
D|--5-5-5s7s5---9------------------------------------------------------------|
A|--------------7------------------------------------------------------------|
E|---------------------------------------------------------------------------|

e|---------------------------------------------------------------------------|
B|--8s10s8-------------------------------------------------------------------|
G|--7s9s7---7--------5~---4~-------------------------------------------------|
D|--5s7s5---7--------5~---4~-------------------------------------------------|
A|----------5--------3~---4~-------------------------------------------------|
E|---------------------------------------------------------------------------|

[ Tab from: http://www.guitaretab.com/d/def-leppard/5005.html ]
Solo 


e|-----10-8-10b12-----10-1810p8p78p7----7--------------------------------|
B|-------------------------------------10---10p8-10p8p78p7-8p7------------|
G|--------------------------------------------------------------9----------|
D|-------------------------------------------------------------------------|
A|-------------------------------------------------------------------------|
E|-------------------------------------------------------------------------|

e|-------------------------------------------------------------------------|
B|--7----------------------------------------------------------------------|
G|----9-7-9-7---7---------7-9-------7--------------------------------------|
D|------------9---9-7--10------9-10----------------------------------------|
A|-------------------------------------------------------------------------|
E|-------------------------------------------------------------------------|


e|-------------------------------------------------------------------------|
B|-----------------99h12p9h12p9h12p9h12p9h12p9h12p9h12p9h12p9-------------|
G|---------------9---------------------------------------------------------|
D|---6--7-9-9s12-----------------------------------------------------------|
A|-------------------------------------------------------------------------|
E|-------------------------------------------------------------------------|

e|-------------------------------------------------------------------------|
B|-------------------------------------------------------------------------|
G|-------9-11-11-12-12-11---12p9----9-9---12-11-9--11-12-14----------------|
D|---10--------------------------9-----------------------------------------|
A|-------------------------------------------------------------------------|
E|-------------------------------------------------------------------------|

e|------------12-14-15-14-12h14p12-11---12-14-15-14-12h14p12-11------------|
B|---12-13-15---------------------------------------------------12---------|
G|-------------------------------------------------------------------------|
D|-------------------------------------------------------------------------|
A|-------------------------------------------------------------------------|
E|-------------------------------------------------------------------------|

e|---17b19-----12h15p12h15p12h15p12h15p12h15p12h15p12h15p12h15p12----------|
B|-------------------------------------------------------------------------|
G|-------------------------------------------------------------------------|
D|-------------------------------------------------------------------------|
A|-------------------------------------------------------------------------|
E|-------------------------------------------------------------------------|

e|---15-14-12h14p12----12----12--14-15-1717b19----------------------------|
B|------------------15----15-----------------------------------------------|
G|-------------------------------------------------------------------------|
D|-------------------------------------------------------------------------|
A|-------------------------------------------------------------------------|
E|-------------------------------------------------------------------------|

e|---22b22bvvvv-----------------------------------------------------------|
B|-------------------15b-15bvvvv-----15b-15bvvvv-----15b17-15b-------------|
G|-----------------------------------14b-14bvvvv-----------14b-------------|
D|-------------------------------------------------------------------------|
A|-------------------------------------------------------------------------|
E|-------------------------------------------------------------------------|


The song structure is
Intro-Riff A
Verse 1iRiff A
Chorus-Riff B
Then riff A 4 times

Verse 2-Riff A
Chorus-Riff B
Bridge-Riff C

Solo- Riff A 4 times
      Riff B 4 times

Then Riff A 4 times

Verse 3-Riff A
Last chorus riff B

That does it
Related for Wasted tab