Song name
# A B C D E F G H I J K L M N O P Q R S T U V W X Y Z

Def Leppard - Rock Rock tab

-----------------------------------------------------------------------------
			     Rock Rock (intro verse)- Def Leppard
-----------------------------------------------------------------------------
Tabbed by: Steven Greencorn
Email:stevengreencorn@hotmail.com

Tuning:standard

e|---------------------------------------------------------------------------|
B|---------------------------------------------------------------------------|
G|--2--2-----------2--2---2------/-7-------2--2------2-----2--2--2----2------|
D|--2--2-----2-----2--2---2------/-7-------2--2------2-----2--2--2----2------|
A|--0--0--3--0-----0--0---0--3---/-5-------0--0--3---0-----0--0--0-3--0---3--|
E|--------------3----------------------------------------3-------------------|

e|---------------------------------------------------------------------------|
B|---------------------------------------------------------------------------|
G|--2-------2-------2-------2------------------------------------------------|
D|--2-------2-------2-------2------------------------------------------------|
A|--0---3---0---3---0---3---0------------------------------------------------|
E|---------------------------------------------------------------------------|



Note: Give tiny bends to the C notes(A sting third fret) for a little flavour
Tap to rate this tab
# A B C D E F G H I J K L M N O P Q R S T U V W X Y Z