Song name
# A B C D E F G H I J K L M N O P Q R S T U V W X Y Z

Def Leppard - Stagefright Live tab

E|--------------------------|-------------------------------| NOTE: this is 
B|--------------------------|-------------------------------| Phil Collen's
G|--------------------------|-------------------------------| Peice Only
D|--2--2--0--2--2--2--2--2--|2--2--2--2--2--2--2--2---------|  Listen To
A|--0--0--0--0--0--0--0--0--|0--0--0--0--0--0--0--0---------| Song For 
E|--------------------------|-------------------------------|  Timing I'm 
                pm pm pm pm  pm pm pm pm pm pm pm pm        Gunna Tab the 
E|--------------------------|-------------------------------| rest in the 
B|--------------------------|-------------------------------| next few days
G|--------------------------|-------------------------------|
D|--3--------3--------2--0--|--2--2--2--2--2--2--2--2-------|
A|--0--0--0--0--0--0--0--0--|--0--0--0--0--0--0--0--0-------|
E|--------------------------|-------------------------------|
       pm pm    pm pm    pm    pm pm pm pm pm pm pm pm
E|---------------------------|-------------------------------|
B|---------------------------|-------------------------------|
G|---------------------------|-------------------------------|
D|--2--2--0--2--2--2--2--2--2|-2--2--2--2--2--2--2--2--------|
A|--0--0--0--2--0--0--0--0--0|-0--0--0--0--0--0--0--0--------|
E|---------------------------|-------------------------------|
                pm pm pm pm pm pm pm pm pm pm pm pm pm 
E|---------------------|----------------------1-----------------|
B|---------------------|----------------------3----------8--8--8|
G|--2------4------7----|----4--------2--------3----------7--7--7|
D|--3------5------7----|----5--------2--------3----------5--5--5|
A|----0--0---0--0---0--|--0----0--0-----------1----------5--5--5|
E|---------------------|---------------------------------3--3--3|
Tap to rate this tab
# A B C D E F G H I J K L M N O P Q R S T U V W X Y Z