Song name
# A B C D E F G H I J K L M N O P Q R S T U V W X Y Z

Def Leppard - Mirror Mirror Look Into My Eyes tab

Help us improve GuitareTab! Take a short survey!
e------------------------------------------------------------------]
B--3----------------------------------------------3-3-3--3-3-3-----]
G--2-----7-7-7-0-3-----5-5-5-0-2----7-7-7-0-3-----2-2-2--2-2-2-----]
D--0-----0-0-0-0-0-----0-0-0-0-0----0-0-0-0-0-----0-0-0--0-0-0-----]
A------------------------------------------------------------------]
E------------------------------------------------------------------]


e------------------------------------------------------------------]
B--------------------------------------------3-3-3--3-3-3----------]
G--7-7-7-0-3-----5-5-5-0-2-----7-7-7-0-3-----2-2-2--2-2-2----------]
D--0-0-0-0-0-----0-0-0-0-0-----0-0-0-0-0-----0-0-0--0-0-0----------]
A------------------------------------------------------------------]
E------------------------------------------------------------------]
Related for Mirror Mirror Look Into My Eyes tab