Song name
# A B C D E F G H I J K L M N O P Q R S T U V W X Y Z

Def Leppard - Answer To The Master tab

| /  slide up
| \  slide down
| h  hammer-on
| p  pull-off
| ~  vibrato
| +  harmonic
| x  Mute note

e|----------------------------------------------------------------|
B|-----------------3-------------------------------3--------------|
G|---------2---3h4---4~---4~---------------2---3h4---4~-----------|
D|-----3h4---4-------------------------3h4---4------------5----7--|
A|-2h5-----------------------------2h5--------------------5----7--|
E|--------------------------------------------------------3----5--|

e|-------------------|
B|-------------------|
G|-4----7------------|
D|-4----7----7----2--|
A|-2----5----7----2--|
E|-----------5----0--|
Tap to rate this tab
# A B C D E F G H I J K L M N O P Q R S T U V W X Y Z