Song name
# A B C D E F G H I J K L M N O P Q R S T U V W X Y Z

Default - Blind tab

-----------------------------------------------------------------------------
			     BLIND - Default
-----------------------------------------------------------------------------
Tabbed by: LiNdZ
Email: guitarbabe_69@hotmail.com

Tuning: standard

intro:
e|------------------------------------|
B|------------------------------------|
G|------------------------------------|
D|------------------------------------|
A|-5-----7--5--------5-----7--5-------|
E|---7-5------7-5-7----7-5------7-5-7-|

verse:
e|-------------------------------------|
B|-------------------------------------|
G|-8--------6--------------------------|
D|-9--------7--------9-----------------|
A|-9--------7--------7--------9-7------|
E|-7--------5---------------------10-7-|

chorus:
e|--------------------------------|
B|--------------------------------|
G|--------------------------------|
D|-7--------9--------12--------14-|
A|-5--------7--------10--------12-|
E|--------------------------------|
Tap to rate this tab
 
# A B C D E F G H I J K L M N O P Q R S T U V W X Y Z