Song name
# A B C D E F G H I J K L M N O P Q R S T U V W X Y Z

Default - Throw It All Away tab

          Tabbed by:
Email:brandonbray2002@yahoo.com


Tuning:    down one whole step and drop c    CGCFAD
                

       *****=  palm mute 




verse  clean intro  \ 1 verse part   (  "this feelings back today".....)
D|---2------------   ---2-----2-----------------------------------------
A|---3-------3----   ---3-----3----3-3-3-3------5-5-5-5-----------------
F|---2-------3----   ---2-----2----3-3-3-3------5-5-5-5-----------------
C ---o-------3 x2-   ---0-----0----3-3-3-3------5-5-5-5-----------------
G  ----------1 ----   -----3-------1-1-1-1------3-3-3-3-----------------
C|---------------   ----------------------------------------------------



  pre chorus         distorted part..(  "why cant I"   
D|---------------------------------------------------------------------------
A|---------------------------------------------------------------------------
F|----------3-3------------------------3-3-----------------------------------
C|-3---0----3-3--3-3-x--5-5----3---0---3-3--3--------------------------------
G|-3---0----1-1--3-3-x--5-5----3---0---1-1--3-eight times with palm mute-----
C|-3---0---------3-3-x--5-5----3---0--------3--------------------------------


  chorus           ( I think im take, en  all Im gonna  take, This really starts to sting")
D|---------------------------------------------------------------------------
A|---------------------------------------------------------------------------
F|----------5-------------5--------------------------------------------------
C|0--3-3-0--5--5---3-3-0--5--  play twice -----------------------------------
G|0--3-3-0--3--5---3-3-0--3--------------------------------------------------
C|0--3-3-0-----5---3-3-0-----------------------------------------------------



   end chorus      "Im gonna throw it all away"
D|---------------------------------------------------------------------------
A|---------------------------------------------------------------------------
F|--------------5-----3-3-3--------------------------------------------------
C|-0--0---3--0--5-----3-3-3--0---5---0---------------------------------------
G|-0--0---3--0--3-----1-1-1--0---5-  0     let ring--------------------------
C|-0--0---3--0---------------0---5---0---------------------------------------
 
  second verse/  same as first verse          ("i feel like im on trial")
|---------------------------------------------------------------------------|
|---------------------------------------------------------------------------|
|---------------------------------------------------------------------------|
|---------------------------------------------------------------------------|
|---------------------------------------------------------------------------|
|---------------------------------------------------------------------------|

thats the whole song, it just repeats those parts, the interlude is the same as the verses
The verse does have some really quiet notes with delay on them, but there preaty faint. 
feel free to email me with comments

| /  slide up
| \  slide down
| h  hammer-on
| p  pull-off
| ~  vibrato
| +  harmonic
| x  Mute note
Tap to rate this tab
 
# A B C D E F G H I J K L M N O P Q R S T U V W X Y Z