Song name
# A B C D E F G H I J K L M N O P Q R S T U V W X Y Z

Default - Without You tab

Band- Default
Song- Without You

Intro/Verse:
E-------------------------------------------------------|
B-------------------------------------------------------|
G-----4-------------------------------------------------|
D--5-----5---------5--4-----5--4-----5--4-----5---------|
A-----------5---5--------5--------5--------5------------|
D-------------------------------------------------------|

Chorus:
E------------------------------------------------------------|
B------------------------------------------------------------|
G------5------------5-------------------------5--------------|
D--3---5---2-2--3---5---5-5-5-5-5-5-5-5---3---5---2-2--------|
A--3---3---2-2--3---3---5-5-5-5-5-5-5-5---3---3---2-2--------|
D--3-------2-2--3-------5-5-5-5-5-5-5-5---3-------2-2--------|

Bridge:
E--------------------------------------------------|
B--------------------------------------------------|
G------5-------------------------------------------|
D--3---5--7-7-7-7-7-7-7-7--3-3-3-3-3-3-3-3---------|
A--3---3--7-7-7-7-7-7-7-7--3-3-3-3-3-3-3-3---------|
D--3------7-7-7-7-7-7-7-7--3-3-3-3-3-3-3-3---------|

Solo

Chorus

Bridge

Intro/Verse
Tap to rate this tab
 
# A B C D E F G H I J K L M N O P Q R S T U V W X Y Z