Guitaretab - guitar tabs
Song name
# A B C D E F G H I J K L M N O P Q R S T U V W X Y Z

Default - I Cant Win tab

I Cant Win Tab by Default

By: jaySin
email: jays_idiom@hotmail.com


Tuning: 
Drop C: CGCFAD

h = hammer on
p = pull off
P.M = Palm mute
x = scuffs
~ =let ring

The two first times are different from the rest of the song because
theres no hammer on from 3 to 5... listened to the rythym.
Intro x2                           x12
D|-------------------------------|------------------------------|
A|-------------------------------|------------------------------|
F|-------------------------------|------------------------------|
C|-------------------------------|------------------------------|
G|-----5-8-5-----3-5p3-5p0-----3-|-5-8-5-----3h5-3-5p0-----3----|
C|-----------0-0-----------3h5---|-------0-0-----------3h5------|

D|-------|
A|-------|
F|--2----|
C|--0----|
G|--0----|
C|--0----|


Chorus 
D|-------------------------------------------------------------------------|
A|-------------------------------------------------------------------------|
F|-7~7~---7-7-7~---7-7-7~--5-5~---5-5-5~---5-5-5~--4-4~---4-4-4~---4-4-4~--|
C|-7-7~0-x7-7-7~0-x7-7-7~0-5-5~0-x5-5-5~0-x5-5-5~0-4-4~0-x4-4-4~0-x4-4-4~0-|
G|-5-5-0-x5-5-5-0-x5-5-5-0-3-3-0-x3-3-3-0-x3-3-3-0-2-2-0-x2-2-2-0-x2-2-2-0-|
C|-----0-x------0-0------0-----0-0------0-0------0-----0-0------0-0------0-|

D|---------------|
A|---------------|
F|-5-------------|
C|-5---5---3-----|
G|-3---5---3-----|
C|-----5---3-----|
[ Tab from: http://www.guitaretab.com/d/default/139979.html ]
D|-------------------------------------------------------|---------------|
A|-------------------------------------------------------|---------------|
F|-7-7---7-7---7-7---5-5---5-5---5-5---4-4---4-4---4-4---|-5-5----------|
C|-7-7---7-7---7-7---5-5---5-5---5-5---4-4---4-4---4-4---|-5--5----------|
G|-5-5-0-5-5-0-5-5-0-3-3-0-3-3-0-3-3-0-2-2-0-2-2-0-2-2-0-|-3--3---5---3-|
C|-----0-----0-----0-----0-----0-----0-----0-----0-----0-|--------5---3-|



Bridge 
x2
D|---3-2-3~~----3-2-3~~----3-2~~-----------------|
A|-3~~--------1~~--------0~~---3~~------3~~------|
F|----------------------------------0-2~~--------|
C|----------------------------------------0~~----|
G|-----------------------------------------------|
C|-----------------------------------------------|

D|----------12--12-12-12-12--12--12-12-12-10--10-10-10-10--10--10-10-10-9-|
A|--3-x-5-x-10--10-10-10-10--10--10-10-10-10--10-10-10-10--10--10-10-10-10|
F|--2-x-4-x-0---0--0--0--0---0---0--0--0--0---0--0--0--0---0---0--0--0--0-|
C|--0-x-0-x---------------------------------------------------------------|
G|------------------------------------------------------------------------|
C|------------------------------------------------------------------------|

D|--9--9--9--9---9---9--9-----2~~|
A|--10-10-10-10--10--10-10----3~~|
F|--0--0--0--0---0---0--0-----2~~|
C|----------------------------0~~|
G|-------------------------------|
C|-------------------------------|
Related for I Cant Win tab