Song name
# A B C D E F G H I J K L M N O P Q R S T U V W X Y Z

Default - All Over Me tab

Default - All Over Me

Tabbed by Yury Ustinov


   
E||-------------------------------|-------------------------------|
B||-------------------------------|-------------------------------|
G||-------9-9-9-6-6-6-7-7-7-6--2--|-------9-9-9-6-6-6-7-7-7-6--2--|
D||-------------------------------|-------------------------------|
A||--7--7-------------------------|--7--7-------------------------|
D||--7--7-------------------------|--7--7-------------------------|

  
--------------------------------|-------------------------------|
--------------------------------|-------------------------------|
-----6S-7--7S-6-----6S-7--7S-6--|-----6S-7---6S-7---6S-7--7S-6--|
--4--------------7--------------|--0----------------------------|
--4--4S-5--5S-4--7--4S-5--5S-4--|--0--4S-5---4S-5---4S-5--5S-4--|
--4--------------7--------------|--0----------------------------|

 

Verse:

I'm sure there must have been a time....

|-------|-------|-------|--------|
|-------|-------|-------|--------|
|-------|-------|-------|--------|
|--7--7-|--2--2-|--0--0-|--0--0--|
|--7--7-|--2--2-|--0--0-|--0--0--|
|--7--7-|--2--2-|--0--0-|--0--0--|



To see I'm not in all that deep...

|-----------------------------|----------------------------|
|-----------------------------|----------------------------|
|-----------------------------|----------------------------|
|--7----7-7-7-7--7-7--7-7-7---|--2----2-2-2-2--2-2--2-2-2--|
|--7----7-7-7-7--7-7--7-7-7---|--2----2-2-2-2--2-2--2-2-2--|
|--7----7-7-7-7--7-7--7-7-7---|--2----2-2-2-2--2-2--2-2-2--|


 
|----------------------------|----------------------------|
|----------------------------|----------------------------|
|----------------------------|----------------------------|
|--0----0-0-0-0--0-0--0-0-0--|--0----0-0-0-0--0-0--0-0-0--|
|--0----0-0-0-0--0-0--0-0-0--|--0----0-0-0-0--0-0--0-0-0--|
|--0----0-0-0-0--0-0--0-0-0--|--0----0-0-0-0--0-0--0-0-0--|


Pre-Chorus:

  I see it's too late now...

|----------------------------------|----------------------------------|
|----------------------------------|----------------------------------|
|----------------------------------|----------------------------------|
|--4-4-4-4-4-4-4-4-4-4-4-4-4-4-4-4-|--7-7-7-7-7-7-7-7-7-7-7-7-7-7-7-7-|
|--4-4-4-4-4-4-4-4-4-4-4-4-4-4-4-4-|--7-7-7-7-7-7-7-7-7-7-7-7-7-7-7-7-|
|--4-4-4-4-4-4-4-4-4-4-4-4-4-4-4-4-|--7-7-7-7-7-7-7-7-7-7-7-7-7-7-7-7-|

I can hear the reaper calling....

|----------------------------|----------------------------|
|----------------------------|----------------------------|
|----------------------------|----------------------------|
|--2----2-2-2-2--2-2--2-2-2--|--0----0-0-0-0--0-0--0-0-0--|
|--2----2-2-2-2--2-2--2-2-2--|--0----0-0-0-0--0-0--0-0-0--|
|--2----2-2-2-2--2-2--2-2-2--|--0----0-0-0-0--0-0--0-0-0--|


Chorus:

All I want is you all over me...   
|----------------------------|----------------------------|
|----------------------------|----------------------------|
|----------------------------|----------------------------|
|--4----4-4-4-7--7-7--7-7-7--|--0----0-0-0-0--0-0--0-0-0--|
|--4----4-4-4-7--7-7--7-7-7--|--0----0-0-0-0--0-0--0-0-0--|
|--4----4-4-4-7--7-7--7-7-7--|--0----0-0-0-0--0-0--0-0-0--|




Bridge:
 
------------------------|------------------------|
------------------------|------------------------|
------------------------|------------------------|
--4---2---7----2--4--2--|--4---2---7----2--4--2--|
--4---2---7----2--4--2--|--4---2---7----2--4--2--|
--4---2---7----2--4--2--|--4---2---7----2--4--2--|
      
|------------------------|----------------------|
|------------------------|----------------------|
|------------------------|----------------------|
|--4---2---7----2--4--2--|--4---2---7----0------|
|--4---2---7----2--4--2--|--4---2---7----0------|
|--4---2---7----2--4--2--|--4---2---7----0------|



s - slide
Tap to rate this tab
# A B C D E F G H I J K L M N O P Q R S T U V W X Y Z