Song name
# A B C D E F G H I J K L M N O P Q R S T U V W X Y Z

Default - Hold On To You tab

Default - Hold On to You
Album: Comes and Goes

Tuning: Drop D

Guitar 2 plays along with Guitar 1 tabbed.

Intro (starts after piano or at 0:11)
Guitar 1
E-----------------------|
B-----------------------|
G-----------------------|
D-8----0----------------| x3
A-8----0----------------|
D-8----0----------------|

Guitar 2
E-----------------------|
B-----------------------|
G-10-9-14---X-10--9/10--|
D-X--X-X----X-X---X/X---| x3
A-8--7-12---X-8---7/8---|
D-----------------------|

Guitar 1
E-------------------------|
B-------------------------|
G----------5--------------|
D-3-----3--5--------------|
A-3-----3--3--------------|
D-3-----3-----------------|

Guitar 2
E----------------------------|
B----------------------------|
G-14----15-12-10-10-9--------|
D-x-----x--x----------10-12--|
A-12----13-10----------------|
D----------------------------|

Verse:
Guitar 1
E-----------|
B-----------|
G-----------|
D-0---------| (let ring throughout verse)
A-0---------|
D-0---------|

Guitar 2
E---0----------0------------0--------------------|
B-----3----------3------------3----------------1-|
G-------2----------2------------0------------3---|
D-0----------3-----------------------------3-----| x2
A-------------------------3--------------1-------|
D------------------------------------------------|

Pre-Chorus:
Guitar 1 & 2
E----------------------------------|
B----------------------------------|
G-7-7-7-7-9-9-9-9-1010101010101010X|
D-5-5-5-5-7-7-7-7-8-8-8-8-8-8-8-8-X|
A-5-5-5-5-7-7-7-7-8-8-8-8-8-8-8-8-X|
D-5-5-5-5-7-7-7-7-8-8-8-8-8-8-8-8-X|

E-------------------------------------|
B-------------------------------------|
G-7-7-7-7-9-9-9-9-1010101012-12-12-12-|
D-5-5-5-5-7-7-7-7-8-8-8-8-10-10-10-10-|
A-5-5-5-5-7-7-7-7-8-8-8-8-10-10-10-10-|
D-5-5-5-5-7-7-7-7-8-8-8-8-10-10-10-10-|

Chorus:
E-----------------------------------------------------------------|
B-----------------------------------------------------------------|
G-------------------------------------------------5-5-5-5-5-5-5-5-|
D-0---x-0-0-0-0-0-8---x-8-8-8-8-8-3-3-3-3-3-3-3-3-5-5-5-5-5-5-5-5-| x2
A-0---x-0-0-0-0-0-8---x-8-8-8-8-8-3-3-3-3-3-3-3-3-3-3-3-3-3-3-3-3-|
D-0---x-0-0-0-0-0-8---x-8-8-8-8-8-3-3-3-3-3-3-3-3-----------------|

E-----------------------------------------------------------------|
B-----------------------------------------------------------------|
G-14--------------15--------------14--------------12--------------|
D-x--x8-----------x--x8-----------x--x8-----------x--x8-----------| x2
A-12--------------13--------------12--------------10--------------|
D-----------------------------------------------------------------|

Post-Chorus:
Guitar 1
E-----------------------|
B-----------------------|
G-----------------------|
D-8----0----------------| x3
A-8----0----------------|
D-8----0----------------|

Guitar 2
E-----------------------|
B-----------------------|
G-10-9-14---X-10--9/10--|
D-X--X-X----X-X---X/X---| x3
A-8--7-12---X-8---7/8---|
D-----------------------|

Guitar 1
E-------------------------|
B-------------------------|
G----------5--------------|
D-3-----3--5--------------|
A-3-----3--3--------------|
D-3-----3-----------------|

Guitar 2
E----------------------------|
B----------------------------|
G-14----15-12-10-10-9--------|
D-x-----x--x----------10-12--|
A-12----13-10----------------|
D----------------------------|

Verse: Repeat Verse 1

Post-Chorus and Chorus 2: REPEAT FIRST ONES 

Bridge: (after piano or at 2:38)
Guitar 1
E-----------------------------------------|
B-----------------------------------------|
G-----------------------------------------|
D-8-8-8-8-8-8-8-8-10-10-10-10-10-10-10-10-|
A-8-8-8-8-8-8-8-8-10-10-10-10-10-10-10-10-|
D-8-8-8-8-8-8-8-8-10-10-10-10-10-10-10-10-|

Guitar 2
E-----------------------------------------|
B-----------------------------------------|
G-7---------------12----------------------|
D-x--x8-----------x--x8-------------------|
A-5---------------10----------------------|
D-----------------------------------------|

Chorus 3:
Guitar 1
E-----------------------------------------------------------------|
B-----------------------------------------------------------------|
G-------------------------------------------------5-5-5-5-5-5-5-5-|
D-0---x-0-0-0-0-0-8---x-8-8-8-8-8-3-3-3-3-3-3-3-3-5-5-5-5-5-5-5-5-| x4
A-0---x-0-0-0-0-0-8---x-8-8-8-8-8-3-3-3-3-3-3-3-3-3-3-3-3-3-3-3-3-|
D-0---x-0-0-0-0-0-8---x-8-8-8-8-8-3-3-3-3-3-3-3-3-----------------|

Guitar 2
E-----------------------------------------------------------------|
B-----------------------------------------------------------------|
G-14--------------15--------------14--------------12--------------|
D-x--x8-----------x--x8-----------x--x8-----------x--x8-----------| x4
A-12--------------13--------------12--------------10--------------|
D-----------------------------------------------------------------|

Outro:
Guitar 1
E-----------------------|
B-----------------------|
G-----------------------|
D-8----0----------------| x3
A-8----0----------------|
D-8----0----------------|

Guitar 2
E-----------------------|
B-----------------------|
G-10-9-14---X-10--9/10--|
D-X--X-X----X-X---X/X---| x3
A-8--7-12---X-8---7/8---|
D-----------------------|

Guitar 1
E-------------------------|
B-------------------------|
G----------5--------------|
D-3-----3--5--------------|
A-3-----3--3--------------|
D-3-----3-----------------|

Guitar 2
E----------------------------|
B----------------------------|
G-14----15-12-10-10-9--------|
D-x-----x--x----------10-12--|
A-12----13-10----------------|
D----------------------------|

End with this:
E---|
B---|
G---|
D-8-|
A-8-|
D-8-|



Key:
x = muted note
/ = slide 
Tap to rate this tab
# A B C D E F G H I J K L M N O P Q R S T U V W X Y Z