Song name
# A B C D E F G H I J K L M N O P Q R S T U V W X Y Z

Default - Who Followed Who tab

Artist: Default
Album: Elocation
Track: Who Followed Who

Intro riff and solo
Tuning in drop D
E-mail: ihave_a_d_d@hotmail.com

Intro
|-------------------------------------------------------|
|-------------------------------------------------------|
|-------------------------------------------------------|
|-------------------------------------------------------|
|---------3-3-------3-----------------------------------|
|---0-3-5-----0-3-5---0-5-4-x-x-------------------------|


Solo Pt1.
|---------------------------------------------------------------|
|---------------------------------------------------------------|
|--------------------4------------------4-5-4-------------------|
|--------4---4-5-4-0--5-4----------4-0--------5-4------     X 2-|
|----3-5---3-------------------3-5-----------------0------------|
|--0-------------------------0---------------------0------------|

Pt. 2
This part can be improvised, these are the basic notes.
Besides, the first half is the coolest anyways.
|--------------------------------------------------------|
|----7-7-7-7-7-7-7-7-7-7-7/5-5/10-10-10-10-10-10-10------|
|--------------------------------------------------------|
|--------------------------------------------------------|
|--------------------------------------------------------|
|--------------------------------------------------------|

|--------------------------------------------------------|
|----1-1-1-1-1-1-1-1p0-0/3~ -----------------------------|
|--------------------------------------------------------|
|--------------------------------------------------------|
|--------------------------------------------------------|
|--------------------------------------------------------|
Tap to rate this tab
 
# A B C D E F G H I J K L M N O P Q R S T U V W X Y Z