Song name
# A B C D E F G H I J K L M N O P Q R S T U V W X Y Z

Default - Memory Will Never Die tab

the memory will never die by default tabbed by virus_era
standard tuning...EADGBe
default rocks!!
e------------------------------------------------------------------------|
B------------------------------------------------------------------------|
G----12---------------12----------------------12----------12h14--14------|
D------12h14--12--10-----12h4--12---10-9-10------12h4--10----------------|
A------------------------------------------------------------------------|
E------------------------------------------------------------------------|

e------------------------------------------------------------------------|
B------------------------------------------------------------------------|
G---17---17h19--17------------17----17h19-----------17----17h19----17s21-|
D-----17-----------17--13-------17-------17--13--17----17-------17-------|
A------------------------------------------------------------------------|
E------------------------------------------------------------------------|

e------------------------------------------------------------------------|
B------------------------------------------------------------------------|
G---20--20h22--20--------------------------------------------------------|
D------------------------------------------------------------------------|
A------------------------------------------------------------------------|
E------------------------------------------------------------------------|

tnx!
Tap to rate this tab
# A B C D E F G H I J K L M N O P Q R S T U V W X Y Z