Guitaretab - guitar tabs
Song name
# A B C D E F G H I J K L M N O P Q R S T U V W X Y Z

Default - It Only Hurts tab

-------------------------------------------------------------------------------
			     It Only Hurts - Default
-------------------------------------------------------------------------------
Tabbed by: morgan44
Email: bigmike_0640@hotmail.com

Tuning: Drop D

Intro/Verse
e|---------------------------------------------------------------------------|
B|---------------------------------------------------------------------------|
G|--------10-----------------------------------------------------------------|
D|--------------7--8--10--8-------3----3-3---3-3--10-10-10-10----------------|
A|---------------------8--8---0---3----3-3---3-3--10-10-10-10----------------|
E|-----0---------------8--8-------3----3-3---3-3--10-10-10-10----------------|

Prechorus - Guitar 1
e|--1-----------1-----0------------------------------------------------------|
B|--1-----3-----3-----1------------------------------------------------------|
G|--3x8--2x8--3x8--0x8---------------------------------------------------|
D|--3-----0-----1-----2------------------------------------------------------|
A|--1-----0-----1-----3------------------------------------------------------|
E|--------0------------------------------------------------------------------|
[ Tab from: http://www.guitaretab.com/d/default/64766.html ]
            Guitar 2
e|-----5-------5-------5-----------------------------------------------------|
B|--------6-------6----------------------------------------------------------|
G|-------------------------x4------------------------------------------------|
D|---0------0--------0-------------------------------------------------------|
A|---------------------------------------------------------------------------|
E|---------------------------------------------------------------------------|

Chorus
e|---------------------------------------------------------------------------|
B|---------------------------------------------------------------------------|
G|---------------------------------------------------------------------------|
D|---0-0-2-3---3-3---3--10--10-10--0-0-2-3---3-3---3--10-10-10-10-5-5-5-5----|
A|---0-0-2-3---3-3---3--10--10-10--0-0-2-3---3-3---3--10-10-10-10-5-5-5-5----|
E|---0-0-2-3---3-3---3--10--10-10--0-0-2-3---3-3---3--10-10-10-10-5-5-5-5----|

e|---------------------------------------------------------------------------|
B|---------------------------------------------------------------------------|
G|---------------------------------------------------------------------------|
D|--0-0-2-3---3-3---3--10-10-10-10-10-10-10-10-8-----------------------------|
A|--0-0-2-3---3-3---3--10-10-10-10-10-10-10-10-8-x16-------------------------|
E|--0-0-2-3---3-3---3--10-10-10-10-10-10-10-10-8-----------------------------|

Bridge 
e|---------------------------------------------------------------------------|
B|---------------------------------------------------------------------------|
G|---------------------------------------------------------------------------|
D|---0----10-----8-----10-----0-----10-----8---------------------------------|
A|---0x8-10x8--8x8--10x8--0x8--10x8--8-x16-----------------------------|
E|---0----10-----8-----10-----0-----10-----8---------------------------------|


| /  slide up
| \  slide down
| h  hammer-on
| p  pull-off
| ~  vibrato
| +  harmonic
| x  Mute note
===============================================================================

Related for It Only Hurts tab