Guitaretab - guitar tabs
Song name
# A B C D E F G H I J K L M N O P Q R S T U V W X Y Z

Default - Crossing The Line tab

Default
Elocation
Crossing The Line
Tabbed by Iank live_and_burn@hotmail.com


Main Riff
Part 1	                                  Part 2
e|----------------------------------------|----------------|
B|----------------------------------------|----------------|
G|----8-9-8-9-----------------------------|-8-9----/14-12~-|
D|----7-7-7-7--7-10p7-5h7-----------------|-7-7-10---------|
A|----------------------------------------|----------------|
D|----------------------------------------|----------------|
[ Tab from: http://www.guitaretab.com/d/default/66585.html ]
Verse
e|---------------------------|
b|---------------------------|
G|---------------------------|
D|---------------------------|
A|------3h5-------3h5--------|
D|---5h7---h7--5h7---5-6-----|

Pre Chorus
E|-----------|
B|-----------|
G|---6-7-----|
D|---4-5-5---|
A|---4-5-5---|
D|-------5---|

Chorus
e|----------------------------------------|
B|----------------------------------------|
G|-------9-7-6----------7-5-4-------------|
D|---77--------0000--55-------3333333-----|
A|---77--------0000--55-------3333333-----|
D|---77--------0000--55-------3333333-----|


No solo yet sorry
Related for Crossing The Line tab
×
Best way to learn
"Crossing The Line"