Song name
# A B C D E F G H I J K L M N O P Q R S T U V W X Y Z

Default - Hiding From The Sun tab

Tabbed by: mathias716@hotmail.com
Hiding from the sun - Default


Drop C


Key:

H:hammer
P:pull off
PM:palm mute
Intro:

D|--------------------|-----------|
A|--------------------|-----------|
F|--------------------|--16x------|
C|--------------------|-----------|
G|-----------5--h3-p0-|-----------|
C|---0--0-0-----------|-----------|

Verse:

Guitar 1
D|-----------------|
A|-----------------|
F|-----------------|32x
C|-----------------|
G|--5--h3-p0-------|
C|-----------------|

Guitar 2
D|------------------------------------|
A|------------------------------------|
F|------------------------------------|
C|------------------------------------|
G|---0---0-0---3---3-3---5---5-5------|
C|---0---0-0---3---3-3---5---5-5------|

Pre-Chorus:

D|---------------------|----|-------------------------------------------------|
A|---------------------|----|-------------------------------------------------|
F|---------------------|-3x-|--the-fourth-time--------------------------------|
C|---0---8---10--8--10-|----|------------------0---8---10--8--10--10----------|
G|---0---8---10--8--10-|----|------------------0---8---10--8--10--10----------|
C|---0---8---10--8--10-|----|------------------0---8---10--8--10--10----------|

Chorus:

D|---0-0-0-------------------------------------------|
A|---3-3-3---6-6-6---10-10-10---8-8-8----------------|
F|---2-2-2---5-5-5---12-12-12--10-1010---------------|
C|---0-0-0---3-3-3---12-12-12--10-1010---------------|
G|---0-0-0---3-3-3---10-10-10---8-8-8----------------|
C|---0-0-0---3-3-3---10-10-10---8-8-8----------------|

Intro:

D|--------------------|-----------|
A|--------------------|-----------|
F|--------------------|--16x------|
C|--------------------|-----------|
G|-----------5--h3-p0-|-----------|
C|---0--0-0-----------|-----------|

Verse:

Guitar 1
D|-----------------|
A|-----------------|
F|-----------------|16x
C|-----------------|
G|--5--h3-p0-------|
C|-----------------|

Guitar 2
D|------------------------------------|
A|------------------------------------|
F|------------------------------------|
C|------------------------------------|
G|---0---0-0---3---3-3---5---5-5------|
C|---0---0-0---3---3-3---5---5-5------|

Pre-Chorus:

D|---------------------|----|-------------------------------------------------|
A|---------------------|----|-------------------------------------------------|
F|---------------------|-3x-|--the-fourth-time--------------------------------|
C|---0---8---10--8--10-|----|------------------0---8---10--8--10--10----------|
G|---0---8---10--8--10-|----|------------------0---8---10--8--10--10----------|
C|---0---8---10--8--10-|----|------------------0---8---10--8--10--10----------|

Chorus:

D|---0-0-0-------------------------------------------|
A|---3-3-3---6-6-6---10-10-10---8-8-8----------------|
F|---2-2-2---5-5-5---12-12-12--10-1010---------------|
C|---0-0-0---3-3-3---12-12-12--10-1010---------------|
G|---0-0-0---3-3-3---10-10-10---8-8-8----------------|
C|---0-0-0---3-3-3---10-10-10---8-8-8----------------|

Bridge:

Guitar1
D ------------------------------|
A ------------------------------|
F ------------------------------|16x
C ------------------------------|
G ----------5-3-0-5-------------|PM
C --0-0-0-----------------------|PM

Guitar 2
D ------------------|
A ------------------|
F ------------------|3x
C --3--5--10--12----|
G --3--5--10--12----|
C --3--5--10--12----|

D -------|
A -------|
F -------|8x
C -12----|
G -10----|
C -10----|

D --------------------|
A --------------------|
F --14--10-12--10-----|
C --14--10-12--10-----|
G --12--8--10--8------|
C --------------------|

Chorus:

Intro:

And now you are ready to play.

email me if the tabs needs correction.
Tap to rate this tab
# A B C D E F G H I J K L M N O P Q R S T U V W X Y Z