Song name
# A B C D E F G H I J K L M N O P Q R S T U V W X Y Z

Default - Found My Way Out tab

-------------------------------------------------------------------------------
			     Found My Way Out (Solo) - Default
-------------------------------------------------------------------------------
Tabbed by: Adam S.
Email:

Tuning:Standard (EADGBe)


Ok. i hope you like this.Nobody else on the internet had it and i was kinda getting
of playing the song and skipping the solo. so i made this. it took me about half an hour to
it right. whew. ok. its gonna take me half an hour to type all the tabs, too. lol. ok. 
the tabs are correct, and there are no wrong fret numbers. i made sure as i tabbed it.

e|---------------------------------------------------------------------------|
B|-------------------------------------------15------------------------------|
G|------------------------11h13p11---14b16------16-16-14\0-------------------|
D|--------12---14-12---------------------------------------------------------|
A|-12h14---------------------------------------------------------------------|
E|---------------------------------------------------------------------------|

e|---------------------------------------------------------------------------|
B|---------------------------------------------------------------------------|
G|------------------------11h13p11--------14---------------------------------|
D|--------12---14-12----------------14s16----14s16--14-----------------------|
A|-12h14---------------------------------------------------------------------|
E|---------------------------------------------------------------------------|

e|---------------------------------------------------------------------------|
B|-------------------------------------------15------------------------------|
G|------------------------11h13p11---14b16------16-16-14---------------------|
D|--------12---14-12---------------------------------------------------------|
A|-12h14---------------------------------------------------------------------|
E|---------------------------------------------------------------------------|

e|----------12-------12-------12----12--------------12----15-14-12-----------|
B|-12-15-12----15-12----15-12----15----15-12--12/15----15----------15-12-----|
G|---------------------------------------------------------------------------|
D|---------------------------------------------------------------------------|
A|---------------------------------------------------------------------------|
E|---------------------------------------------------------------------------|

e|--------------12/14---17-14---17-14---17-14---17-14\12-10--|
B|-15-12-15--------------------------------------------------|
G|-----------------------------------------------------------|
D|-----------------------------------------------------------|
A|-----------------------------------------------------------|
E|-----------------------------------------------------------|

you know you're dragging me down....yada yada yada. enjoy!


| /  slide up
| \  slide down
| h  hammer-on
| p  pull-off
| ~  vibrato
| +  harmonic
| x  Mute note
===============================================================================
Tap to rate this tab
# A B C D E F G H I J K L M N O P Q R S T U V W X Y Z