Song name
# A B C D E F G H I J K L M N O P Q R S T U V W X Y Z

Defeat The Purpose - Sky Fell tab

THE SKY FELL
DEFEAT THE PURPOSE
CARMEL, NY
(C) 2004


E |----0--0-0--0--0-0--0--0-0--0--0---|
B |--22-22-2-00-00-0---------00-00-0--|
G |------------------22-22-2----------|
D |-----------------------------------|
A |-----------------------------------|
E |-----------------------------------|

Repeat four times, then change slightly to:

A |----0-4-0---4444540--0-4-0--444454--|
B |--22-2-2-2-0-------00-0-0-0---------|
G |---------------------------2--------|
D |------------------------------------|
A |------------------------------------|
E |------------------------------------|

THIS IS JUST THE INTRO. HOPEFULLY I WILL HAVE THE WHOLE THING POSTED SOON.







Peace...
Tap to rate this tab
 
# A B C D E F G H I J K L M N O P Q R S T U V W X Y Z