Defeater - Waves Crash Clouds Roll tab

Waves Crash, Clouds Roll by Defeater from "Empty Days & Sleepless Nights"
Tuning: D Standard
D-G-C-F-A-d


d-----------------------------------------------------------------|
A-----------------------------------------------------------------|
F-----------------------------------------------------------------|
C-----------------------------------------------------------------|
G-3-3-3-3-3-3-3-3-3-3-3-3-3-3-3-3-3-3-3-3-3-3-3-3-3-3-3-3-3-3-3-3-|
D-0-1-1-1-1-1-0-1-1-1-1-1-0-1-1-1-0-1-1-1-1-1-0-1-1-1-1-1-1-3-3-3-|

d-------------------------------------------------------------------|
A-------------------------------------------------------------------|
F-------------------------------------------------------------------|
C-------------------------------------------------------------------|
G-3-5-5-5-5-5-5-5-5-5-5-5-5-5-5-5-5-5-5-5-5-5-10101010101010101010--|
D-3-5-5-5-5-5-3-5-5-5-5-5-3-5-5-5-3-5-5-5-5-5-7-7-7-7-7-7-8-8-8-8---|

d-----------------------------------------------------------------|
A-----------------------------------------------------------------|
F-12-----12-----12-----12-----12-----12-----12-----12-------------|
C---10-10--10-10--10-10--10-10--10-10--10-10--10-10--10-10--------|
G-----8------8------8------8------0------0------0------0----------|
D-----------------------------------------------------------------|

d-----------------------------------------------------------------|
A-----------------------------------------------------------------|
F-----------------------------------------------------------------|
C-----------------------------------------------------------------|
G-3-----3-----7-----3-----3-----5-5-5-5-5-5-5-5-5-5-5-5-5-5-5-5---|
D-1-----0-----5-----1-----0-----3-5-5-5-3-5-5-5-3-5-5-5-3-5-5-5---|

d-----------------------------------------------------------------|
A-----------------------------------------------------------------|
F-----------------------------------------------------------------|
C-----------------------------------------------------------------|
G-3-3-3-3----3-3-3-3----5-5-5-5----5-5-5-5------------------------|
D-1-1-0-1----1-1-0-1----5-5-3-5----5-5-3-5------------------------|
Tap to rate this tab
 
# A B C D E F G H I J K L M N O P Q R S T U V W X Y Z