Song name
# A B C D E F G H I J K L M N O P Q R S T U V W X Y Z

Defeater - Warm Blood Rush tab

Warm Blood Rush by Defeater
Tuning: D Standard
D-G-C-F-A-d


Most of this song is this progression:
d---------------------------------|
A----------------with-------------|
F--5--4--11-12---this---16--------|
C--5--5----------over-------------|
G--3--2--9--10---top----14--------|
D---------------------------------|

d----------------------------------------------------|
A----------------------------------------------------|
F--16------------------------------------------------|
C------4h5-5-5-5-5-5h4-4-4-4-4-4-4-4-4-4h5-5---------|
G--14--0-0-0-0-0-0-0-0-0-0-0-0-0-0-0-0-0-0-0---------|
D----------------------------------------------------|

d--19----------19----------19----------------------------------|
A-----17----17----17-16-------17----17-16----------------------|
F--------16-------------17-------16----------14--12--14--16----|
C--------------------------------------------------------------|
G--------------------------------------------12--10--12--14----|
D--------------------------------------------------------------|

This should give you a general idea of the song
Tap to rate this tab
 
# A B C D E F G H I J K L M N O P Q R S T U V W X Y Z