Defeater - White Knuckles tab

White Knuckles
Defeater
Empty Days & Sleepless Nights

Drop D (yes, yes, I know they use D standard, but I tabbed this out in Drop D and I'm
putting it up in drop D. Deal with it asshole.)


Verse: 0:00

------------------------------|------------------------------|
--111111101010999101010991010-|-111111101010999101010991010--|
------------------------------|------------------------------|
--8-8-8-7-7-7-5557-7-7-557-7--|-8-8-8-7-7-7-5557-7-7-557-7---|
------------------------------|------------------------------|
------------------------------|------------------------------|

-------------------------------------------------------|
--13131311111110101011111110101111-|-88866655----------|
-------------------------------------------------------|
--1010108-8-8-7-7-7-8-8-8-7-7-8-8--|-55533322----------|
-------------------------------------------------------|
---------------------------------------------00000000--|

------------------------------|------------------------------|
--111111101010999101010991010-|-111111101010999101010991010--|
------------------------------|------------------------------|
--8-8-8-7-7-7-5557-7-7-557-7--|-8-8-8-7-7-7-5557-7-7-557-7---|
------------------------------|------------------------------|
------------------------------|------------------------------|

-------------------------------------------------------|
--13131311111110101011111110101111-|-8886665566666666--|
-------------------------------------------------------|
--1010108-8-8-7-7-7-8-8-8-7-7-8-8--|-5553332233333333--|
-------------------------------------------------------|
-------------------------------------------------------|


Chorus: 0:21

-----------------------------------------|
------------------------------66666666---|
--------------------77777777-(55555555)--|
--55555555-88888888-55555555--33333333---|
--55555555-88888888-55555555-------------|
--55555555-88888888-55555555-------------|

---------------------------------------|
---------------------10----------------|
-----------------------x16-------------|
--55555555-88888888--8-----------------|
--55555555-88888888--------------------|
--55555555-88888888--------------------|


small interlude thing: 0:43

---------------------------------------|
---------------------------------------|
--12-----------------------------------|
-----x16-------------------------------|
--10-----------------------------------|
---------------------------------------|


Verse: 0:46

------------------------------|------------------------------|
--111111101010999101010991010-|-111111101010999101010991010--|
------------------------------|------------------------------|
--8-8-8-7-7-7-5557-7-7-557-7--|-8-8-8-7-7-7-5557-7-7-557-7---|
------------------------------|------------------------------|
------------------------------|------------------------------|

-------------------------------------------------------|
--13131311111110101011111110101111-|-88866655----------|
-------------------------------------------------------|
--1010108-8-8-7-7-7-8-8-8-7-7-8-8--|-55533322----------|
-------------------------------------------------------|
---------------------------------------------00000000--|

------------------------------|------------------------------|
--111111101010999101010991010-|-111111101010999101010991010--|
------------------------------|------------------------------|
--8-8-8-7-7-7-5557-7-7-557-7--|-8-8-8-7-7-7-5557-7-7-557-7---|
------------------------------|------------------------------|
------------------------------|------------------------------|

-------------------------------------------------------|
--13131311111110101011111110101111-|-88866655----------|
-------------------------------------------------------|
--1010108-8-8-7-7-7-8-8-8-7-7-8-8--|-55533322----------|
-------------------------------------------------------|
-------------------------------------------------------|


Other interlude thing: 1:07

----------------------------------|
----------------------------------|
----------------------------------|
----------------------------------|
----------------------------------|
--5-x24--8-x8--1-x16--3-x8--4-x8--|

(play three times then finish on the G [5th fret])

Chorucs again. Drum roll outro. Bam.
Tap to rate this tab
 
# A B C D E F G H I J K L M N O P Q R S T U V W X Y Z