Song name
# A B C D E F G H I J K L M N O P Q R S T U V W X Y Z

Defeater - Blessed Burden tab

-------------------------------------------------------------------------------
			     Blessed Burden - Defeater
-------------------------------------------------------------------------------
Tabbed by: xoreax
Email: -

Tuning: D-Standard


Intro/Chorus:
D|---------------------------------------------------------------------------|
A|---------------------------------------------------------------------------|
F|---------------------------------------------------------------------------|
C|7-7-7-7-7-7-7-7-7-7-7-7-3-3-3-3-3-3-3-3-3-3-3-3--5--5----------------------|
G|7-7-7-7-7-7-7-7-7-7-7-7-3-3-3-3-3-3-3-3-3-3-3-3--3--5----------------------|
D|5-5-0-0-5-5-0-0-5-5-0-0-1-1-0-0-1-1-0-0-1-1-0-0-----3----------------------|

Bridge:
D|---------------------------------------------------------------------------|
A|---------------------------------------------------------------------------|
F|---------------------------------------------------------------------------|
C|7-7-7--7-7-7----7-7-7---5--------------------------------------------------|
G|7-7-7--7-7-7----7-7-7---5--------------------------------------------------|
D|5-5-5-0-5-5-5-0-5-5-5-0-3--------------------------------------------------|

Main Riff:
Only Chord Progression.
D|----0-------0--------------------------------------------------------------|
A|----0-------0--------------------------------------------------------------|
F|---------------------4-----------------------------------------------------|
C|3---------5------7---4-----------------------------------------------------|
G|3---------5------7---2-----------------------------------------------------|
D|1-1-------3------5---------------------------------------------------------|

Then Chorus, 2nd Time with different, more staccato like Strumming.
After that -> Main Riff.


Main Riff Variation:
D|----0-------0-0-------0-----0---0------------------------------------------|
A|----0-------0-0-------0-----0---0------------------------------------------|
F|---------------------------------------------------------------------------|
C|3-3---3-3-3-----5-5-5---5-5---5----7-------------9-9-----------------------|
G|3-3---3-3-3-----5-5-5---5-5---5----7--------7-7------7-7-------------------|
D|1-1---1-1-1-----3-3-3---3-3---3----5----5-5--------------------------------|

Interlude:
D|---------------------------------------------------------------------------|
A|---------------------------------------------------------------------------|
F|------9-----------9--------9-----------------------------------------------|
C|7~------10--------10-----10------------------------------------------------|
G|7~---------12-----12---12--------------------------------------------------|
D|5~-------------------------------------------------------------------------|

Fast Strumming, maybe some wah-wah (Only Chords):
D|---------------------------------------------------------------------------|
A|13---12------10---------13----12------15b----------------------------------|
F|---------------------------------------------------------------------------|
C|10---10------7----------10----10------12-----------------------------------|
G|---------------------------------------------------------------------------|
D|---------------------------------------------------------------------------|

Main Riff + Main Riff Variation.

Ending, don't know the exact Chords but something like this:
D|0~----3----3~--3~----------------------------------------------------------|
A|10~---6----5~--3~----------------------------------------------------------|
F|9~----7----5~--4~----------------------------------------------------------|
C|7~-------------------------------------------------------------------------|
G|---------------------------------------------------------------------------|
D|---------------------------------------------------------------------------|




************************************

| /   slide up
| \   slide down
| h   hammer-on
| p   pull-off
| ~   vibrato
| +   harmonic
| x   Mute note
| b   Bend
| pb  Pre-bend
| br  Bend release
| pbr Pre-bend release
| brb Bend release bend

************************************
Tap to rate this tab
 
# A B C D E F G H I J K L M N O P Q R S T U V W X Y Z