Song name
# A B C D E F G H I J K L M N O P Q R S T U V W X Y Z

Defeater - The Red White And Blues tab

Full Step Down

Notes: In a lot of the chords actually involve playing the full chord and not just the
power chord (ex: 022000, instead of 022xxx) to get the right dissonance going; A LOT of
subtleties. Also, you have to figure out the strumming, it isn't hard at all. Sounds 
decent, there's more guitar parts in the song, but I think this is fine to play.



INTRO
                                                            { E n d i i i i i i i i i i
i i n g 1}       {Ending 2}
d [-------------------------------------------------------------------------------|
A [-----8-----8-----8----------------3------3--------3----------------------------|
F [--------------------9--------------5------5----------------5-///---------------|
C [----------------------9------------5------5-----5---5------5-///---------------|
G [--7-----7---------------7------3------3-------3------------3-///---------------|
D [-------------------------------------------------------------------------------|


VERSE
                                                                       { Ending 1  }
 { E n d i n g           2   }
d [---------------------------------------------------------------------------|
A [--888888-------------------33333-------------------------------------------|
F [--999999-----12121212------55555----17171717----17171716--12-1617----------|
C [--999999-----x-x-x-x-------55555----x-x-x-x------x-x-x-x---x--x-x----------|
G [--777777----10101010------33333----15151515----15151514--10  1415----------|
D [---------------------------------------------------------------------------|



CHORUS


          {1st time only}
d [----------------------------------------------------------------------------|
A [----------------------------------------------------------------------------|
F [------------16161616-------------1414141417171717-{1616}--------------------|
C [--2-2-2-2---x-x-x-x----5-5-5-5---x-x-x-x--x-x-x-x--{x-x-}-------------------|
G [--2-2-2-2--14141414---5-5-5-5---1212121215151515-{1414}---------------------|
D [--0-0-0-0--------------3-3-3-3----------------------------------------------|


d [--------------------------------------------------------------------|
A [--------------------------------------------------------------------|
F [--------------------------------------------------------------------|
C [--2222--77--55555555--77--101010---101010121212---------------------|
G [--2222--77--55555555--77--101010---101010121212---------------------|
D [--0000--55--33332233--55--8-8-8----8-8-8-10-10-10-------------------|



VERSE
(Same thing but different ending 2nd time around)


d [---------------------------------------------------------------------------|
A [---------------------------------------------------------------------------|
F [-----171717161612121212161617171717171716161717191919----------------------|
C [-----x-x-x-x-x-x-x-x-x-x-x-x-x-x-x-x-x-x-x-x-x-x-x-x-x-x-------------------|
G [----1515151414101010101414151551515151414151517171717----------------------|
D [---------------------------------------------------------------------------|


BRIDGE

d [-----------0----------------------------------------------------|
A [------------0---------------------------------------------------|
F [-------------0--------------------------------------------------|
C [---2~~~~-----2--------------------------------------------------|
G [---2~~~~------2-------------------------------------------------|
D [---0~~~~-------0------------------------------------------------|

Natural Harmonics
d [---------------------------7----7--------------------------------|
A [--7-----7-----7-----7--------------------------------------------|
F [----5-----5-----5-----5------------------------------------------|
C [------5-----5-----5-----5----5----5------------------------------|
G [-----------------------------------------------------------------|
D [-----------------------------------------------------------------|


CHORUS
(For Ending)
Tap to rate this tab
# A B C D E F G H I J K L M N O P Q R S T U V W X Y Z