Song name
# A B C D E F G H I J K L M N O P Q R S T U V W X Y Z

Defecation - Under Surveilance tab

-------------------------------------------------------------------------------
			   Under Surveilance - Defecation
-------------------------------------------------------------------------------
Tabbed by: Rockstar_imn
Email: RRockstar90c@aol.com

Defecation - Signed on Nuclear Blast records.
http://www.nuclearblast.de/band_showa.php?artist=69

Tuning: Dropped D

| pm  palm mute
| b   bend
| /   slide up
| \   slide down
| h   hammer-on
| p   pull-off
| ~   vibrato
| +   harmonic
| x   Mute note
===============================================================================

e|-----------------------------------------------------------------------|
b|-----------------------------------------------------------------------|
g|-----------------------------------------------------------------------|
d|---------------------------5-5--5-5-5--5-5-5--5-5-5--5-5-5-------------|
A|-3-3--3-3-3--3-3-3--3-3-3--3-3--3-3-3--3-3-3--3-3-3--3-3-3-------------|
D|-1-1--1-1-1--1-1-1--1-1-1----------------------------------------------|

e|-----------------------------------------------------------------------|
b|-----------------------------------------------------------------------|
g|-----------------------------------------------------------------------|
d|-6-6--6-6-6--6-6-6--6-6-6----------------------------------------------|
A|-4-4--4-4-4--4-4-4--4-4-4--5-5--5-5-5--5-5-5--5-5-5--5-5-5-------------|
D|---------------------------3-3--3-3-3--3-3-3--3-3-3--3-3-3-------------|
^ Play both those parts (together because they go together) 2x

e|-----------------------------------------------------------------------|
b|-----------------------------------------------------------------------|
g|-4-4--4-4-4-4-4--------------------------------------------------------|
d|-2-2--2-2-2-2-2-3-3--3-3-3-3-3-----------------------------------------|
A|----------------1-1--1-1-1-1-1-5-5--5-5-5-5-5--5-5--5-5-5-5-5----------|
D|-------------------------------3-3--3-3-3-3-3--3-3--3-3-3-3-3----------| x2

e|-----------------------------------------------------------------------|
b|-----------------------------------------------------------------------|
g|-----------------------------------------------------------------------|
d|----------------------5-5--5-------------------------------------------|
A|-3-3--3-3-3--3-3-3--3-3-3--3-6-5--5-5-5--5-5-5--5-5-5--5---------------|
D|-1-1--1-1-1--1-1-1--1--------4-3--3-3-3--3-3-3--3-3-3--3---------------| 4x

e|-----------------------------------------------------------------------|
b|-----------------------------------------------------------------------|
g|------------------------------------------------------------2-2-2-2-2--|
d|-4-4--4-3-3-3-3-3--------3-3-3-3-3--4-4--4-3-3-3-3-3--------0-0-0-0-0--|
A|-2-2--2-1-1-1-1-1-5-5--5-1-1-1-1-1--2-2--2-1-1-1-1-1-5-5--5------------|
D|------------------3-3--3-----------------------------3-3--3------------|

e|-----------------------------------------------------------------------|
b|-----------------------------------------------------------------------|
g|-------------------------------------------2-2-2-2-2-------------------|
d|-4-4--4-3-3-3-3-3--------3-3-3-3-3--4-4--4-0-0-0-0-0-4-4--4-2-2-2-2-2--|
A|-2-2--2-1-1-1-1-1-5-5--5-1-1-1-1-1--2-2--2-----------2-2--2-1-1-1-1-1--|
D|------------------3-3--3-----------------------------------------------|

Guitar 1
e|---------------------------------------------------------|
b|---------------------------------------------------------|
g|---------------------------------------------------------|
d|---------------------------------------------------------|
A|--|----------pm-----------|--|----------pm-----------|---|
D|-1-0-0-0-0-0-0-0-0-0-0-0-0-2--0-0-0-0-0-0-0-0-0-0-0-0----|

e|---------------------------------------------------------|
b|---------------------------------------------------------|
g|---------------------------------------------------------|
d|---------------------------------------------------------|
A|-0-|----pm----|-1-|----pm----|---10b---------------------|
D|---0-0-0-0-0-0----0-0-0-0-0-0----------------------------|

Guitar 2
e|---------------------------------------------------------|
b|---------------------------------------------------------|
g|---------------------------------------------------------|
d|-3------------------------4------------------------------|
A|---------------------------------------------------------|
D|---------------------------------------------------------|

e|---------------------------------------------------------|
b|---------------------------------------------------------|
g|---------------------------------------------------------|
d|-7--------------8--------------10b-----------------------|
A|---------------------------------------------------------|
D|---------------------------------------------------------|

Both Guitars
e|---------------------------------------------------------|
b|---------------------------------------------------------|
g|---------------------------------------------------------|
d|---------------------------------------------------------|
A|-3-2-2-2-2-2-2-2-2-2-2-2-2-4-2-2-2-2-2-2-2-2-2-2-2-2-2---|
D|-1-0-0-0-0-0-0-0-0-0-0-0-0-2-0-0-0-0-0-0-0-0-0-0-0-0-0---|

e|---------------------------------------------------------|
b|---------------------------------------------------------|
g|---------------------------------------------------------|
d|-2-------------3-------------10b-------------------------|
A|-0-2-2-2-2-2-2-1-2-2-2-2-2-2-----------------------------|
D|---0-0-0-0-0-0---0-0-0-0-0-0-----------------------------|

e|---------------------------------------------------------|
b|---------------------------------------------------------|
g|---------------------------------------------------------|
d|---------------------------------------------------------|
A|-3-2-2-2-2-2-2-2-2-2-2-2-2-4-2-2-2-2-2-2-2-2-2-2-2-2-2---|
D|-1-0-0-0-0-0-0-0-0-0-0-0-0-2-0-0-0-0-0-0-0-0-0-0-0-0-0---|

e|---------------------------------------------------------|
b|---------------------------------------------------------|
g|---------------------------------------------------------|
d|-2-------------3-----------------------------------------|
A|-0-2-2-2-2-2-2-1-2-2-2-2-2-2-3---------------------------|
D|---0-0-0-0-0-0---0-0-0-0-0-0-1---------------------------|

e|-----------------------------------------------------|
b|-----------------------------------------------------|
g|-----------------------------------------------------|
d|-3-3--3-3-3--3-5--6--5--3--2-2--2-2-2--2-3--5--6--5--|
A|-1-1--1-1-1--1-3--4--3--1--0-0--0-0-0--0-1--3--4--3--|
D|-----------------------------------------------------|

e|-----------------------------------------------------------| 
b|-----------------------------------------------------------|
g|-----------------------------------------------------------|
d|--------------------------------------------2-2--2-2-2--2--|
A|-5-5--5-5-5--5-5-5--5-5-5--5--4-4--4-4-4--4-0-0--0-0-0--0--|
D|-3-3--3-3-3--3-3-3--3-3-3--3--2-2--2-2-2--2----------------|

e|-----------------------------------------------------|
b|-----------------------------------------------------|
g|-----------------------------------------------------|
d|-3-3--3-3-3--3-5--6--5--3--2-2--2-2-2--2-3--5--6--5--|
A|-1-1--1-1-1--1-3--4--3--1--0-0--0-0-0--0-1--3--4--3--|
D|-----------------------------------------------------|

e|-----------------------------------------------------------| 
b|-----------------------------------------------------------|
g|-----------------------------------------------------------|
d|--------------------------------------------2-2--2-2-2--2--|
A|-5-5--5-5-5--5-5-5--5-5-5--5--4-4--4-4-4--4-0-0--0-0-0--0--|
D|-3-3--3-3-3--3-3-3--3-3-3--3--2-2--2-2-2--2----------------|

e|---------------------------------------------------------|
b|---------------------------------------------------------|
g|---------------------------------------------------------|
d|---------------------------------------------------------|
A|-3-2-2-2-2-2-2-2-2-2-2-2-2-4-2-2-2-2-2-2-2-2-2-2-2-2-2---|
D|-1-0-0-0-0-0-0-0-0-0-0-0-0-2-0-0-0-0-0-0-0-0-0-0-0-0-0---|

e|---------------------------------------------------------|
b|---------------------------------------------------------|
g|---------------------------------------------------------|
d|-2-------------3-------------10b-------------------------|
A|-0-2-2-2-2-2-2-1-2-2-2-2-2-2-----------------------------|
D|---0-0-0-0-0-0---0-0-0-0-0-0-----------------------------|

e|---------------------------------------------------------|
b|---------------------------------------------------------|
g|---------------------------------------------------------|
d|---------------------------------------------------------|
A|-3-2-2-2-2-2-2-2-2-2-2-2-2-4-2-2-2-2-2-2-2-2-2-2-2-2-2---|
D|-1-0-0-0-0-0-0-0-0-0-0-0-0-2-0-0-0-0-0-0-0-0-0-0-0-0-0---|

e|---------------------------------------------------------|
b|---------------------------------------------------------|
g|---------------------------------------------------------|
d|-2-------------3-----------------------------------------|
A|-0-2-2-2-2-2-2-1-2-2-2-2-2-2-3---------------------------|
D|---0-0-0-0-0-0---0-0-0-0-0-0-1---------------------------|

e|-----------------------------------------------------------------------|
b|-----------------------------------------------------------------------|
g|-----------------------------------------------------------------------|
d|----------------------5-5--5-------------------------------------------|
A|-3-3--3-3-3--3-3-3--3-3-3--3-6-5--5-5-5--5-5-5--5-5-5--5---------------|
D|-1-1--1-1-1--1-1-1--1--------4-3--3-3-3--3-3-3--3-3-3--3---------------| 4x

e|-----------------------------------------------------------------------|
b|-----------------------------------------------------------------------|
g|------------------------------------------------------------2-2-2-2-2--|
d|-4-4--4-3-3-3-3-3--------3-3-3-3-3--4-4--4-3-3-3-3-3--------0-0-0-0-0--|
A|-2-2--2-1-1-1-1-1-5-5--5-1-1-1-1-1--2-2--2-1-1-1-1-1-5-5--5------------|
D|------------------3-3--3-----------------------------3-3--3------------|

e|-----------------------------------------------------------------------|
b|-----------------------------------------------------------------------|
g|-------------------------------------------2-2-2-2-2-------------------|
d|-4-4--4-3-3-3-3-3--------3-3-3-3-3--4-4--4-0-0-0-0-0-4-4--4-2-2-2-2-2--|
A|-2-2--2-1-1-1-1-1-5-5--5-1-1-1-1-1--2-2--2-----------2-2--2-1-1-1-1-1--|
D|------------------3-3--3-----------------------------------------------|

Guitar 1
e|---------------------------------------------------------|
b|---------------------------------------------------------|
g|---------------------------------------------------------|
d|---------------------------------------------------------|
A|--|----------pm-----------|--|----------pm-----------|---|
D|-1-0-0-0-0-0-0-0-0-0-0-0-0-2--0-0-0-0-0-0-0-0-0-0-0-0----|

e|---------------------------------------------------------|
b|---------------------------------------------------------|
g|---------------------------------------------------------|
d|---------------------------------------------------------|
A|-0-|----pm----|-1-|----pm----|---10b---------------------|
D|---0-0-0-0-0-0----0-0-0-0-0-0----------------------------|

Guitar 2
e|---------------------------------------------------------|
b|---------------------------------------------------------|
g|---------------------------------------------------------|
d|-3------------------------4------------------------------|
A|---------------------------------------------------------|
D|---------------------------------------------------------|

e|---------------------------------------------------------|
b|---------------------------------------------------------|
g|---------------------------------------------------------|
d|-7--------------8--------------10b-----------------------|
A|---------------------------------------------------------|
D|---------------------------------------------------------|

Both Guitars
e|---------------------------------------------------------|
b|---------------------------------------------------------|
g|---------------------------------------------------------|
d|---------------------------------------------------------|
A|-3-2-2-2-2-2-2-2-2-2-2-2-2-4-2-2-2-2-2-2-2-2-2-2-2-2-2---|
D|-1-0-0-0-0-0-0-0-0-0-0-0-0-2-0-0-0-0-0-0-0-0-0-0-0-0-0---|

e|---------------------------------------------------------|
b|---------------------------------------------------------|
g|---------------------------------------------------------|
d|-2-------------3-------------10b-------------------------|
A|-0-2-2-2-2-2-2-1-2-2-2-2-2-2-----------------------------|
D|---0-0-0-0-0-0---0-0-0-0-0-0-----------------------------|

e|---------------------------------------------------------|
b|---------------------------------------------------------|
g|---------------------------------------------------------|
d|---------------------------------------------------------|
A|-3-2-2-2-2-2-2-2-2-2-2-2-2-4-2-2-2-2-2-2-2-2-2-2-2-2-2---|
D|-1-0-0-0-0-0-0-0-0-0-0-0-0-2-0-0-0-0-0-0-0-0-0-0-0-0-0---|

e|---------------------------------------------------------|
b|---------------------------------------------------------|
g|---------------------------------------------------------|
d|-2-------------3-----------------------------------------|
A|-0-2-2-2-2-2-2-1-2-2-2-2-2-2-3---------------------------|
D|---0-0-0-0-0-0---0-0-0-0-0-0-1---------------------------|
Tap to rate this tab
# A B C D E F G H I J K L M N O P Q R S T U V W X Y Z