Guitaretab - guitar tabs
Song name
# A B C D E F G H I J K L M N O P Q R S T U V W X Y Z

Defiance Ohio - Condition tab

                      Condition 11:11 by Defiance, Ohio

This is a great song by Defiance, Ohio and no one had tabbed it yet so I 
decided to give it a try. Keep in mind that I tabbed the intro by ear so 
it may not be exact but it should be pretty close.


Intro
e|----------------------------------------------------------------------|
B|-----------1-----1-1---1-1-----1-1---1-1------------------------------|
G|---------0-0-----0-0---2-2-0h2-2-2---0-0------------------------------|
D|-------------0h2-----3------------------------------------------------|
A|---0-2-3---------------------------3-------2-3------------------------|
E|-3---------------------------------------3----------------------------|

e|----------------------------------------------------------------------|
B|-----------1-----1-1---1-1-----1-1---1-1------------------------------|
G|---------0-0-----0-0---2-2-0h2-2-2---0-0------------------------------|
D|-------------0h2-----3------------------------------------------------|
A|---0-2-3---------------------------3-------2-3------------------------|
E|-3---------------------------------------3----------------------------|

e|----------------------------------------------------------------------|
B|---------1-1-----1-1-----------------1-1-----1-1---1------------------|
G|---------2-2-0h2-2-2---0-0-----0-0---0-0-----0-0---0------------------|
D|---0-2-3---------------------------------0h2--------------------------|
A|-3-------------------------0h2-----3----------------------------------|
E|---------------------3------------------------------------------------|

e|----------------------------------------------------------------------|
B|---------1-1-----1-1---3-3-----3-3-1-1-1111-1-1-1111-1-1-1111-1-------|
G|---------2-2-0h2-2-2---4-4-3h4 4-4-2-2-2222-2-2-2222-2-2-2222-2-------|
D|---0-2-3-------------5-------------3-3-3333-3-3-3333-3-3-3333-3-3-2-0-|
A|-3--------------------------------------------------------------------|
E|----------------------------------------------------------------------|
[ Tab from: http://www.guitaretab.com/d/defiance-ohio/317809.html ]
e|----------------------------------------------------------------------|
B|-------1-----1-1---------------1-1-1111-1-1-1---3-3-3333-3------------|
G|-----0-0-----0-0---0-0-----0-0-2-2-2222-2-2-2---4-4-4444-4------------|
D|---------0h2-------------------3-3-3333-3-3-3-4-5-5-5555-5------------|
A|-3---------------------0h2--------------------------------------------|
E|-----------------3----------------------------------------------------|

          C              F                   C            Am        F
I had no idea what I was after, I'm just preparing for Disaster   
                                 G
with everything feeling so far away. 
          C               F              C           Am             F     G
Familiar faces, familiar lips, is there any point to this hanging around?
        C              F           C        Am     F                     
I was upset when that glass broke doing the dishes. At 11:11 every night I 
      G
make wishes. 
C                F     C               Am    F 
Habit and superstition feed my foolish fires, they've been burning for a 
           G
couple of months.
F               G
I stay out all day
   F                     G
to keep these thoughts away.
               F               G 
Why don't you give my feet a break and come back?

Riff 1
e|--------------------------------------------0------|
B|------1-----1-1---1-1-----1-1---1-1---------1------|
G|----0-0-----0-0---2-2-0h2-2-2---0-0---------0------|
D|--------0h2-----3-------------------------2-2------|
A|-3----------------------------3-------2-3---3------|
E|------------------------------------3--------------|

C Am
C Am
C Am
C Am

     C             F                C                    Am  F
I remember in the kitchen when you told me your grandma died. That's when I 
                  G
realized it gets worse. 
           C                  F      C              Am         F
I want to wish things last forever, thicken my soft skin, you comfort me so 
         G
and I remember, remember
     F                    G
When I walk through that door 
         F                        G
I won't hear the happy sounds anymore. 
      F                 G
This year took so much away and won't give it back.


Then play riff 1 and then the intro again and end on C
Related for Condition tab
Condition chords by Defiance Ohio