Song name
# A B C D E F G H I J K L M N O P Q R S T U V W X Y Z

Defiance Ohio - Calling Old Friends tab

-------------------------------------------------------------------------------
			     Calling Old Friends - Defiance Ohio
-------------------------------------------------------------------------------
Tabbed by: cooperwelch
Pretty cool song hear. Great chord progression. This might not be 100% right but I'm 
pretty sure it's close. Just mess around with the Verse chords to
find the rhythm and roll with it. Thanks guys! Rate it!

Tuning: Standard
Chords: C C5 F Fm G Am
G should always be played as a bar chord. C5 refers to a quick transition to the C power chord


INTRO/OUTRO
e|----0-x-0--3--1-----------------------------------------------------------------|
B|----1-x-1--3--1-----------------------------------------------------------------|
G|----0-x-0--4--2---999--7--5--(0)------------------------------------------------|
D|----2-x-2--5--3-----------------------------------------------------------------|
A|----3-x-3--5--3-----------------------------------------------------------------|
E|----x-x-x--3--1-----------------------------------------------------------------|

VERSE
(No music over this verse)
The roads that stretch ahead of us, the roads that led us here;
singing traditional renditions of the songs we sang last year.
And though these times have made us stronger, the outcome's no more clear.

   C                          G           F
Calling old friends to make sure they're real,
   F
Talking, talking just to feel
   C                                  G         F
That sense of home you lost when you left last year.
   C                     G       F
Distance is just numbers on a dashboard, hours thinking about
   C                            G         F
Nothing but the transmission stutter you fear.

CHORUS
    F                 G              Am
I remember what you whispered in my ear,
     F                    G                C5   G       F
And all those things we tried so hard to never have to hear,
        F                       G               Am
Like "kids tighten up, start saving for the golden years."
        F                    G                    C5      G       F
Well, that picture it fades day by day and the outcome's not so clear.

FILL
F Fm F Fm

Order:
Intro
Verse
Chorus
Fill
Intro
Verse
Chorus
Fill (x2)
Outro (same as intro)
Tap to rate this tab
 
# A B C D E F G H I J K L M N O P Q R S T U V W X Y Z