Song name
# A B C D E F G H I J K L M N O P Q R S T U V W X Y Z

Defiance Ohio - Letter Home tab

This is a really good song by a really sweet band


This part is played right in the beggining from "Dear friend....stop this stupid war"
e|---------------------------------------------------------|
b|---------------------------------------------------------|
g|---------------------------------------------------------|
d|---------------------------------------------------------|    2x
a|----------4-4--------------------------4-4---------------|
E|--5-5-7-7-----7-7-5-5-7-7-0----5-5-7-7-----7-7-5555-7777-|


Then it goes like this

e|--5--7--9---|
b|--5--7--9---|
g|--6--8--10--|
d|--7--9--11--|
a|--7--9--11--|
E|--5--7--9---|

pretty much thats all the guitar for the song so youll have to listen to it to find out 
where when and how they play it.
Tap to rate this tab
 
# A B C D E F G H I J K L M N O P Q R S T U V W X Y Z