Song name
# A B C D E F G H I J K L M N O P Q R S T U V W X Y Z

Defiance - Concealed Genocide tab

-------------------------------------------------------------------------------
			     Concealed Genocide - Defiance
-------------------------------------------------------------------------------
Tabbed by: Matt
Email:

Tuning:Standard
intro/chorus (with bass)
e|---------------------------------------------------------------------------|
B|---------------------------------------------------------------------------|
G|---5555--8888--10101010--101010--888--555----------------------------------|
D|---5555--8888--10101010--101010--888--555----------------------------------|
A|---3333--6666--8-8-8-8---8-8-8---666--333----------------------------------|
E|---------------------------------------------------------------------------|
Intro2/verse(intro no bass)
e|---------------------------------------------------------------------------|
B|---------------------------------------------------------------------------|
G|---------------------------------------------------------------------------|
D|--555--888--101010--101010--888--------------------------------------------|
A|--555--888--101010--101010--888--------------------------------------------|
E|--333--666--8-8-8---8-8-8---666--------------------------------------------|

e|---------------------------------------------------------------------------|
B|---------------------------------------------------------------------------|
G|----------------------------8----------------------------------------------|
D|--555--888--101010--101010--8----------------------------------------------|
A|--555--888--101010--101010--6----------------------------------------------|
E|--333--666--8-8-8---8-8-8--------------------------------------------------|
Tap to rate this tab
# A B C D E F G H I J K L M N O P Q R S T U V W X Y Z